>
 >
Cyberwaste 2

Cyberwaste 2 Guitar Tabs

Fear Factory - Cyberwaste 2 chords, tabs, tablatures, lyrics

Guitar lessons | Add/correct | Request | Top 50 tabs Artists:  A B C D E F G H I J K L M N O P Q R S T U V W X Y Z 0-9

Cyberwaste 2 Guitar Tabs – Fear Factory

CD, Sheet music, Poster

Do you like Cyberwaste 2? Share with your friends now
Bass TabsBass Tabs v2Drum TabsTabsTabs v2Tabs v3Tabs v4
----------------------------------------------------------------------------
                        Cyberwaste by Fear Factory
----------------------------------------------------------------------------

Tuning:C,G,C,F,A,D

Intro Part 1
D]-----------------------------------------------------|
A]-----------------------------------------------------|
F]-----------------------------------------------------|
C]-----------------------------------------------------|  Play 3 times
G]-3-2-555555------------------------------------------|
C]-3-2-555555------------------------------------------|
       ......

Intro Part 2
D]------------------------------------------------------|
A]------------------------------------------------------|
F]------------------------------------------------------|
C]------5-----------------------------------------------|  Play 1 Time
G]-3-2--3--5--------------------------------------------|
C]-3-2-----5--------------------------------------------|

D]-----------------------------------------------------|
A]-----------------------------------------------------|
F]-----------------------------------------------------|
C]-----------------------------------------------------|  Play 3 times
G]-3-2-555555------------------------------------------|
C]-3-2-555555------------------------------------------|
       ......

D]-----------------------------------------------------|
A]-----------------------------------------------------|
F]-----------------------------------------------------|
C]------5----------------------------------------------|  Play 1 Time
G]-3-2--3--5-------------------------------------------|
C]-3-2-----5-------------------------------------------|

Verse Part 1
D]-----------------------------------------------------|
A]-----------------------------------------------------|
F]-----------------------------------------------------|
C]----------------3------------------------------------|   Play 3 times
G]-3-2-5-0---3-2--5--5---------------------------------|
C]-3-2-5-0---3-2-----5---------------------------------|

Verse Part 2
D]-----------------------------------------------------|
A]-----------------------------------------------------|
F]-----------------------------------------------------|
C]-----------------------------------------------------|  Play 1 time
G]-3-2-5-0-3-3-3-3-3-3-3333----------------------------|
C]-3-2-5-0-3-3-3-3-3-3-3333----------------------------|
           . . . . . . ....


D]-----------------------------------------------------|
A]-----------------------------------------------------|
F]-----------------------------------------------------|
C]----------------3------------------------------------|   Play 3 times
G]-3-2-5-0---3-2--5--5---------------------------------|
C]-3-2-5-0---3-2-----5---------------------------------|


D]-----------------------------------------------------|
A]-----------------------------------------------------|
F]-----------------------------------------------------|
C]-----------------------------------------------------|  Play 1 time
G]-3-2-5-0-3-3-3-3-3-3-3333----------------------------|
C]-3-2-5-0-3-3-3-3-3-3-3333----------------------------|

D]-----------------------------------------------------|
A]-----------------------------------------------------|
F]-----------------------------------------------------|
C]-----------------------------------------------------|  Play 3 times
G]-3-2-555555------------------------------------------|
C]-3-2-555555------------------------------------------|
       ......

D]-----------------------------------------------------|
A]-----------------------------------------------------|
F]-----------------------------------------------------|
C]------5----------------------------------------------|  Play 1 Time
G]-3-2--3--5-------------------------------------------|
C]-3-2-----5-------------------------------------------|

D]-----------------------------------------------------|
A]-----------------------------------------------------|
F]-----------------------------------------------------|
C]-----------------------------------------------------|  Play 3 times
G]-3-2-555555------------------------------------------|
C]-3-2-555555------------------------------------------|
       ......

D]-----------------------------------------------------|
A]-----------------------------------------------------|
F]-----------------------------------------------------|
C]------5----------------------------------------------|  Play 1 Time
G]-3-2--3--5-------------------------------------------|
C]-3-2-----5-------------------------------------------|


Chorus part 1
D]-----------------------------------------------------------------|
A]-----------------------------------------------------------------|
F]-----------------------------------------------------------------|
C]-----------------------------------------------------------------|
G]-2-2-2-2-2-2-2-2-6-6-6-6-6-6-6-6-0-0-0-0-0-0-0-0-3-3-3-3-3-3-3-3-|
C]-2-2-2-2-2-2-2-2-6-6-6-6-6-6-6-6-0-0-0-0-0-0-0-0-3-3-3-3-3-3-3-3-|

Chorus part 2
D]-----------------------------------------------------------------|
A]-----------------------------------------------------------------|
F]-----------------------------------------------------------------|
C]-----------------------------------------------------------------|
G]-2-2-2-2-2-2-2-2-6-6-6-6-6-6-6-6-7-7-7-7-7-7-7-7-3-3-3-3-3-3-3-3-|
C]-2-2-2-2-2-2-2-2-6-6-6-6-6-6-6-6-7-7-7-7-7-7-7-7-3-3-3-3-3-3-3-3-|

Chorus part 3
D]-----------------------------------------------------------------|
A]-----------------------------------------------------------------|
F]-----------------------------------------------------------------|
C]-----------------------------------------------------------------|
G]-2-2-2-2-2-2-2-2-6-6-6-6-6-6-6-6-0-0-0-0-0-0-0-0-3-3-3-3-3-3-3-3-|
C]-2-2-2-2-2-2-2-2-6-6-6-6-6-6-6-6-0-0-0-0-0-0-0-0-3-3-3-3-3-3-3-3-|

Chorus part 4
D]-----------------------------------------------------------------|
A]-----------------------------------------------------------------|
F]-----------------------------------------------------------------|
C]-----------------------------------------------------------------|
G]-2-2-2-2-2-2-2-2-6-6-6-6-6-6-6-6-5-5-5-5-5-5-5-5-3-3-3-3-3-3-3-3-|
C]-2-2-2-2-2-2-2-2-6-6-6-6-6-6-6-6-5-5-5-5-5-5-5-5-3-3-3-3-3-3-3-3-|

D]-----------------------------------------------------|
A]-----------------------------------------------------|
F]-----------------------------------------------------|
C]-----------------------------------------------------|  Play 3 times
G]-3-2-555555------------------------------------------|
C]-3-2-555555------------------------------------------|
       ......

D]-----------------------------------------------------|
A]-----------------------------------------------------|
F]-----------------------------------------------------|
C]------5----------------------------------------------|  Play 1 Time
G]-3-2--3--5-------------------------------------------|
C]-3-2-----5-------------------------------------------|

D]-----------------------------------------------------|
A]-----------------------------------------------------|
F]-----------------------------------------------------|
C]-----------------------------------------------------|  Play 3 times
G]-3-2-555555------------------------------------------|
C]-3-2-555555------------------------------------------|
       ......

D]-----------------------------------------------------|
A]-----------------------------------------------------|
F]-----------------------------------------------------|
C]------5----------------------------------------------|  Play 1 Time
G]-3-2--3--5-------------------------------------------|
C]-3-2-----5-------------------------------------------|

D]-----------------------------------------------------|
A]-----------------------------------------------------|
F]-----------------------------------------------------|
C]----------------3------------------------------------|   Play 3 times
G]-3-2-5-0---3-2--5--5---------------------------------|
C]-3-2-5-0---3-2-----5---------------------------------|


D]-----------------------------------------------------|
A]-----------------------------------------------------|
F]-----------------------------------------------------|
C]-----------------------------------------------------|  Play 1 time
G]-3-2-5-0-3-3-3-3-3-3-3333----------------------------|
C]-3-2-5-0-3-3-3-3-3-3-3333----------------------------|

D]-----------------------------------------------------|
A]-----------------------------------------------------|
F]-----------------------------------------------------|
C]----------------3------------------------------------|   Play 3 times
G]-3-2-5-0---3-2--5--5---------------------------------|
C]-3-2-5-0---3-2-----5---------------------------------|


D]-----------------------------------------------------|
A]-----------------------------------------------------|
F]-----------------------------------------------------|
C]-----------------------------------------------------|  Play 1 time
G]-3-2-5-0-3-3-3-3-3-3-3333----------------------------|
C]-3-2-5-0-3-3-3-3-3-3-3333----------------------------|


D]-----------------------------------------------------------------|
A]-----------------------------------------------------------------|
F]-----------------------------------------------------------------|
C]-----------------------------------------------------------------|
G]-2-2-2-2-2-2-2-2-6-6-6-6-6-6-6-6-0-0-0-0-0-0-0-0-3-3-3-3-3-3-3-3-|
C]-2-2-2-2-2-2-2-2-6-6-6-6-6-6-6-6-0-0-0-0-0-0-0-0-3-3-3-3-3-3-3-3-|


D]-----------------------------------------------------------------|
A]-----------------------------------------------------------------|
F]-----------------------------------------------------------------|
C]-----------------------------------------------------------------|
G]-2-2-2-2-2-2-2-2-6-6-6-6-6-6-6-6-7-7-7-7-7-7-7-7-3-3-3-3-3-3-3-3-|
C]-2-2-2-2-2-2-2-2-6-6-6-6-6-6-6-6-7-7-7-7-7-7-7-7-3-3-3-3-3-3-3-3-|


D]-----------------------------------------------------------------|
A]-----------------------------------------------------------------|
F]-----------------------------------------------------------------|
C]-----------------------------------------------------------------|
G]-2-2-2-2-2-2-2-2-6-6-6-6-6-6-6-6-0-0-0-0-0-0-0-0-3-3-3-3-3-3-3-3-|
C]-2-2-2-2-2-2-2-2-6-6-6-6-6-6-6-6-0-0-0-0-0-0-0-0-3-3-3-3-3-3-3-3-|


D]-----------------------------------------------------------------|
A]-----------------------------------------------------------------|
F]-----------------------------------------------------------------|
C]-----------------------------------------------------------------|
G]-2-2-2-2-2-2-2-2-6-6-6-6-6-6-6-6-5-5-5-5-5-5-5-5-3-3-3-3-3-3-3-3-|
C]-2-2-2-2-2-2-2-2-6-6-6-6-6-6-6-6-5-5-5-5-5-5-5-5-3-3-3-3-3-3-3-3-|



Interlude part 1
D]----------------------------------------------------|
A]----------------------------------------------------|
F]----------------------------------------------------|
C]----------------------------------------------------| Play 8 times
G]-3-2-4-4-3-5-5-4-6-6-7------------------------------|
C]-3-2-4-4-3-5-5-4-6-6-7------------------------------|

Interlude part 2
D]--------------------------------------------------|
A]--------------------------------------------------|
F]--------------------------------------------------|
C]--------------------------------------------------|   Play 4 times
G]-3333-2222-4444-4444-3333-5555-4444-66666-7-------|
C]-3333-2222-4444-4444-3333-5555-4444-66666-7-------|


D]-----------------------------------------------------------------|
A]-----------------------------------------------------------------|
F]-----------------------------------------------------------------|
C]-----------------------------------------------------------------|
G]-2-2-2-2-2-2-2-2-6-6-6-6-6-6-6-6-0-0-0-0-0-0-0-0-3-3-3-3-3-3-3-3-|
C]-2-2-2-2-2-2-2-2-6-6-6-6-6-6-6-6-0-0-0-0-0-0-0-0-3-3-3-3-3-3-3-3-|


D]-----------------------------------------------------------------|
A]-----------------------------------------------------------------|
F]-----------------------------------------------------------------|
C]-----------------------------------------------------------------|
G]-2-2-2-2-2-2-2-2-6-6-6-6-6-6-6-6-7-7-7-7-7-7-7-7-3-3-3-3-3-3-3-3-|
C]-2-2-2-2-2-2-2-2-6-6-6-6-6-6-6-6-7-7-7-7-7-7-7-7-3-3-3-3-3-3-3-3-|


D]-----------------------------------------------------------------|
A]-----------------------------------------------------------------|
F]-----------------------------------------------------------------|
C]-----------------------------------------------------------------|
G]-2-2-2-2-2-2-2-2-6-6-6-6-6-6-6-6-0-0-0-0-0-0-0-0-3-3-3-3-3-3-3-3-|
C]-2-2-2-2-2-2-2-2-6-6-6-6-6-6-6-6-0-0-0-0-0-0-0-0-3-3-3-3-3-3-3-3-|


D]-----------------------------------------------------------------|
A]-----------------------------------------------------------------|
F]-----------------------------------------------------------------|
C]-----------------------------------------------------------------|
G]-2-2-2-2-2-2-2-2-6-6-6-6-6-6-6-6-5-5-5-5-5-5-5-5-3-3-3-3-3-3-3-3-|
C]-2-2-2-2-2-2-2-2-6-6-6-6-6-6-6-6-5-5-5-5-5-5-5-5-3-3-3-3-3-3-3-3-|


Palm muting phase
D]-----------------------------------------------------------------|
A]-----------------------------------------------------------------|
F]-----------------------------------------------------------------|
C]-----------------------------------------------------------------|
G]-33333333-3-3-3-3-3-3-3-3-33333333-------------------------------|
C]-33333333-3-3-3-3-3-3-3-3-33333333-------------------------------|
   ........ . . . . . . . . ........

Bridge
D]---------------------------------------------------|
A]---------------------------------------------------|
F]---------------------------------------------------|
C]---------------------------------------------------|  Play 12 times
G]-8-6-5-6-8-6-8-9-----------------------------------|
C]-8-6-5-6-8-6-8-9-----------------------------------|


D]------------------------------------------|
A]------------------------------------------|
F]------------------------------------------|
C]------------------------------------------|  Play 4 times
G]-3-1-0-1-3-1-3-4--------------------------|
C]-3-1-0-1-3-1-3-4--------------------------|


D]---------------------------------------------------|
A]---------------------------------------------------|
F]---------------------------------------------------|
C]---------------------------------------------------|  Play 2 times
G]-8-6-5-6-8-6-8-9-----------------------------------|
C]-8-6-5-6-8-6-8-9-----------------------------------|

D]---------------------------------------------------|
A]---------------------------------------------------|
F]---------------------------------------------------|
C]---------------------------------------------------|
G]-8888-6666-5555-6666-8888-6666-8888-9999-----------|
C]-8888-6666-5555-6666-8888-6666-8888-9999-----------|
   .... .... .... .... .... .... .... ....

D]---------------------------------------------------|
A]---------------------------------------------------|
F]---------------------------------------------------|
C]---------------------------------------------------|
G]-8-6-5-6-8-6-8-9-----------------------------------|
C]-8-6-5-6-8-6-8-9-----------------------------------|
   . . . . . . . .

D]-----------------------------------------------------|
A]-----------------------------------------------------|
F]-----------------------------------------------------|
C]-----------------------------------------------------|  Play 3 times
G]-3-2-555555------------------------------------------|
C]-3-2-555555------------------------------------------|
       ......

D]-----------------------------------------------------|
A]-----------------------------------------------------|
F]-----------------------------------------------------|
C]------5----------------------------------------------|  Play 1 Time
G]-3-2--3--5-------------------------------------------|
C]-3-2-----5-------------------------------------------|

| /  slide up
|   slide down
| h  hammer-on
| p  pull-off
| ~  vibrato
| +  harmonic
| x  Mute note
] .  Palm Mute
============================================================================





Comments


Popular Fear Factory tabs & chords
Bite The Hand That Bleeds 1 Bass Tabs
Freedom Or Fire 4 Bass Tabs
Resistancia! Chords
Back The Fuck Up Tabs
Crisis Tabs
Descent 1 Tabs
Messiah Tabs
Resurrection 2 Tabs
Scum Grief Tabs
Self Bias Resistor 1 Tabs


Song lyrics



↑ Back to top | Tablatures and chords are parodies/interpretations of the original songs. You may use it for private study, scholarship, research or language learning purposes only
© 2014 AZChords.com Contact us | Privacy policy | DMCA | Add/correct tabs | Request tabs | Top 50 tabs