» » »

Cyberwaste Tabs (ver.1)

Artists:  A B C D E F G H I J K L M N O P Q R S T U V W X Y Z # 

Cyberwaste Tabs (ver.1)

Fear Factory
Rating:
4/5 (5 votes)

Hard to play? Try these video lessons and learn fast.
                BAND : FEAR FACTORY
SONG : CYBERWASTE
TUNING: 7 STRING GUITAR IN STANDARD Tuning (BEADGBE)
Corrected 90% by: Thommoboy
CHORUS
X3
E|-----------------------|--------------|
B|-----------------------|--------------|
G|-----------------------|--------------|
D|-----------------------|--------------| X2
A|-----------------------|--------8-----|
E|--6--5-----------------|--6--5--6--8--|
B|--4--3--6-6-6-6-6-6-6--|--4--3-----6--|
0: 08
X3
E|---------------------------------|-------------------------------------|
B|---------------------------------|-------------------------------------|
G|---------------------------------|-------------------------------------|
D|---------------------------------|-------------------------------------| X3
A|----------3--------------8-------|-----3------pm-pm-pm-pm-pm-pm--------|
E|--6---5---1--3---6---5---6---8---|--6---5---1--3---5-5-5-5-5-5-5-5-----|
B|--4---3------1---4---3-------6---|--4---3------1---3-3-3-3-3-3-3-3-----|
(back to chorus)
0: 40
E|------------------------------------------------------------------------|
B|------------------------------------------------------------------------|
G|------------------------------------------------------------------------|
D|------------------------------------------------------------------------|
A|---------------------4-4-4-4-4-4-4-4------------------------------------|
E|---5-5-5-5-5-5-5-5---2-2-2-2-2-2-2-2---3-3-3-3-3-3-3-3---6-6-6-6-6-6-6-6|
B|---3-3-3-3-3-3-3-3---------------1-1-1-1-1-1-1-1---4-4-4-4-4-4-4-4------|
E|------------------------------------------------------------------------|
B|------------------------------------------------------------------------|
G|------------------------------------------------------------------------|
D|------------------------------------------------------------------------|
A|---------------------4-4-4-4-4-4-4-4---5-5-5-5-5-5-5-5------------------|
E|---5-5-5-5-5-5-5-5---2-2-2-2-2-2-2-2---3-3-3-3-3-3-3-3---------5-5------|
B|---3-3-3-3-3-3-3-3------------------------------------3-3-3-2--3-3------|
E|------------------------------------------------------------------------|
B|------------------------------------------------------------------------|
G|------------------------------------------------------------------------|
D|------------------------------------------------------------------------|
A|---------------------4-4-4-4-4-4-4-4------------------------------------|
E|---5-5-5-5-5-5-5-5---2-2-2-2-2-2-2-2---3-3-3-3-3-3-3-3---6-6-6-6-6-6-6-6|
B|---3-3-3-3-3-3-3-3---------------------1-1-1-1-1-1-1-1---4-4-4-4-4-4-4-4|
E|------------------------------------------------------------------------|
B|------------------------------------------------------------------------|
G|------------------------------------------------------------------------|
D|------------------------------------------------------------------------|
A|---------------------4-4-4-4-4-4-4-4---3-3-3-3-3-3-3-3------------------|
E|---5-5-5-5-5-5-5-5---2-2-2-2-2-2-2-2---1-1-1-1-1-1-1-1---------5-5------|
B|---3-3-3-3-3-3-3-3------------------------------------3-3-3-2--3-3------|
(repeat whole thing again)
1: 46
E|-----------------------------------------------------------------------|
B|-----------------------------------------------------------------------|
G|-----------------------------------------------------------------------|
D|-----------------------------------------------------------------------| x8
A|-----------------------------------------------------------------------|
E|---6-5--7--7-6--8--8-7---9--9--10--------------------------------------|
B|---4-3--5--5-4--6--6-5---7--7--8---------------------------------------|
2: 03
E|-----------------------------------------------------------------------|
B|-----------------------------------------------------------------------|
G|-----------------------------------------------------------------------|
D|-----------------------------------------------------------------------| X4
A|---tremolo   picking---------------------------------------------------|
E|------------------------9--9--10---------------------------------------|
B|---4-3--5--5-4--6--6-5--7--7--8----------------------------------------|
(back to verse riff)
2: 29
E|-----------------------------------------------------------------------|
B|-----------------------------------------------------------------------|
G|-----------------------------------------------------------------------|
D|-----------------------------------------------------------------------|
A|---tremolo picking---------------------tremolo picking-----------------|
E|---------pm-------------pm-pm-pm-pm-pm-pm------------pm----------------|
B|---------3--------------3-3-3-3-3-3-3-3--------------3-----------------|
2: 32
E|-----------------------------------------------------------------------|
B|-----------------------------------------------------------------------|
G|-----------------------------------------------------------------------|
D|----------------------------------6--4--3--4--6--4--6--7---------------| X4
A|-----6--4--3--4--6--4--6--7-------x--x--x--x--x--x--x--x---------------|
E|-----4--2--1--2--4--2--4--5-------4--2--1--2--4--2--4--5---------------|
B|-----------------------------------------------------------------------|
2: 48
E|-----------------------------------------------------------------------|
B|-----------------------------------------------------------------------|
G|-----------------------------------------------------------------------|
D|-----------------------------------------------------------------------| X4
A|-----6--4--3--4--6--4--6--7--------------------------------------------|
E|-----4--2--1--2--4--2--4--5--------------------------------------------|
B|-----------------------------------------------------------------------|
2: 57
E|-----------------------------------------------------------------------|
B|-----------------------------------------------------------------------|
G|-----------------------------------------------------------------------|
D|-----------------------------------------------------------------------|
A|---6--4--3--4--6--4--6--7----------------------------------------------| X4
E|---x--x--x--x--x--x--x--x----------------------------------------------|
B|---4--2--1--2--4--2--4--5----------------------------------------------|
3: 05
E|-----------------------------------------------------------------------|
B|-----------------------------------------------------------------------|
G|-----------------------------------------------------------------------|
D|-----------------------------------------------------------------------| X2
A|-----6--4--3--4--6--4--6--7--------------------------------------------|
E|-----4--2--1--2--4--2--4--5--------------------------------------------|
B|-----------------------------------------------------------------------|
3: 09
E|-----------------------------------------------------------------------|
B|-----------------------------------------------------------------------|
G|-----------------------------------------------------------------------|
D|-----tremolo picking---------------------------------------------------|
A|-----pm-pm-pm-pm-pm-pm-pm-pm-------------------------------------------|
E|-----4--2--1--2--4--2--4--5--------------------------------------------|
B|-----------------------------------------------------------------------|
3:11
E|-----------------------------------------------------------------------|
B|-----------------------------------------------------------------------|
G|-----------------------------------------------------------------------|
D|-----pm-pm-pm-pm-pm-pm-pm-pm-------------------------------------------|
A|-----6--4--3--4--6--4--6--7--------------------------------------------|
E|-----4--2--1--2--4--2--4--5--------------------------------------------|
B|-----------------------------------------------------------------------|
(back to chorus)
            
Hard to play? Try these video lessons and learn fast. | Correct




comments powered by Disqus
↑ Back to top | Tablatures and chords are parodies/interpretations of the original songs. You may use it for private study, scholarship, research or language learning purposes only