» » »

Fear Factory, Cyberwaste Bass tabs (ver.2)

Artists:  A B C D E F G H I J K L M N O P Q R S T U V W X Y Z # 

Cyberwaste Bass tabs (ver.2)

Fear Factory Tabs
 Rating:
4.2/5 (5 votes)
Cyberwaste lessons Tabs too difficult? Try these video lessons and learn fast
                Band:  Fear Factory
Its 100 % correct

Standard tuning

Chorus
G------------------------------|
D--------------------------8---|
A-6-5----6-5----6-5----6-5---8-|
E------------------------------|

VerseX2
G----------------|
D----3-------8---|
A-6-5--3-6-5---8-| x2.5 (first half again)
E----------------|

G-----------------|
D-----------------|
A-2-2-2-2-2-2-2-2-|
E-----------------|

Then Chorus twice.
"You are a virus......."
G------------------------------------|
D------3333--------------------------|
A-5555------2222-6666-5555-8888-9999-|
E- ----------------------------------|

Back to the chorus again, then the verse, then "You are a virus........"

Then
G-----------------------|
D-----------------------|
A-----------------------|
E-2-2-4--4-6-6--66-77-8-| I'm not sure how many times you play it,
listen to the song to find out.

"You are a virus........" again, then this bit
G-----------------|
D-6-4-3-4-6-4-6-7-|
A-----------------|
E-----------------| Again I'm not sure how many times you play it,
listen to the song to find out.

Then
G------------------|
D-4-2-1-2-4-2-4-5--|
A------------------|
E------------------| X4
Back to the bit above a few times, then finish with chorus
Nice and simple!
            
Submit corrections

comments powered by Disqus
↑ Back to top | Fear Factory Bass for Cyberwaste. Lyrics for acoustic guitar and electric guitar. Tablatures and chords are parodies/interpretations of the original songs. You may use it for private study, scholarship, research or language learning purposes only