» » »

Fear Factory, Cyberwaste Bass tabs (ver.1)

Artists:  A B C D E F G H I J K L M N O P Q R S T U V W X Y Z # 

Cyberwaste Bass tabs (ver.1)

Fear Factory Tabs
 Rating:
3.3/5 (6 votes)
Cyberwaste lessons Tabs too difficult? Try these video lessons and learn fast
1
                
CYBERWASTE (Bassline)
As recorded by Fear Factory
(From the 2004 Album ARCHETYPE)

	

Words and Music by Fear Factory
Arranged by Fear Factory

Gtr I (B E A D G) - 'Bass (play with a pick)'
Gtr II (B E A D G) - 'Heavy Effect'

 Intro
  Q=120
  N.C.
 4/4
  Gtrs I, II
  E E T T T T T T T T E E T T T T T T T T   E E T T T T T T T T E E E E
|-----------------------------------------|-----------------------------|
|-----------------------------------------|-----------------------------|
|-----------------------------------------|-----------------------------|
|-----------------------------------------|-------------------------6---|
|-4-3-6-6-6-6-6-6-6-6-4-3-6-6-6-6-6-6-6-6-|-4-3-6-6-6-6-6-6-6-6-4-3---6-|


  E E Q  E E T T T T T T T T   E E Q  E E E E
|----------------------------|----------------|
|----------------------------|----------------|
|----------------------------|----------------|
|----------------------------|------------6---|
|-4-3----4-3-6-6-6-6-6-6-6-6-|-4-3----4-3---6-|


   Pre-Verse
    E E E E E E E E  3x E E E E S S S S S S T T T T
||-------------------||-----------------------------|
||o-----------------o||-----------------------------|
||-------------------||-----------------------------|
||o-----1-------6---o||-----1-----------------------|
||--4-3---1-4-3---6--||-4-3---1-3-3-3-3-3-3-3-3-3-3-|


   Verse
    E E E E E E E E  3x E E E E S S S S S S T T T T
||-------------------||-----------------------------|
||o-----------------o||-----------------------------|
||-------------------||-----------------------------|
||o-----1-------6---o||-----1-----------------------|
||--4-3---1-4-3---6--||-4-3---1-3-3-3-3-3-3-3-3-3-3-|


    E E E E E E E E  3x E E E E S S S S S S T T T T
||-------------------||-----------------------------|
||o-----------------o||-----------------------------|
||-------------------||-----------------------------|
||o-----1-------6---o||-----1-----------------------|
||--4-3---1-4-3---6--||-4-3---1-3-3-3-3-3-3-3-3-3-3-|


 Pre-Chorus
  E E T T T T T T T T E E T T T T T T T T   E E T T T T T T T T E E E E
|-----------------------------------------|------------------------------|
|-----------------------------------------|------------------------------|
|-----------------------------------------|------------------------------|
|-----------------------------------------|-------------------------6----|
|-4-3-6-6-6-6-6-6-6-6-4-3-6-6-6-6-6-6-6-6-|-4-3-6-6-6-6-6-6-6-6-4-3---6--|


  E E Q  E E T T T T T T T T   E E Q  E E E E
|----------------------------|----------------|
|----------------------------|----------------|
|----------------------------|----------------|
|----------------------------|------------6---|
|-4-3----4-3-6-6-6-6-6-6-6-6-|-4-3----4-3---6-|


 Chorus
  S S S S S S S S S S S S S S S S   S S S S S S S S S S S S S S S S
|---------------------------------|---------------------------------|
|---------------------------------|---------------------------------|
|---------------------------------|---------------------------------|
|---------------------------------|---------------------------------|
|-3-3-3-3-3-3-3-3-7-7-7-7-7-7-7-7-|-1-1-1-1-1-1-1-1-5-5-5-5-5-5-5-5-|


  S S S S S S S S S S S S S S S S   S S S S S S S S S S S S S S S S
|---------------------------------|------------------------------------|
|---------------------------------|------------------------------------|
|---------------------------------|------------------------------------|
|---------------------------------|------------------------------------|
|-3-3-3-3-3-3-3-3-7-7-7-7-7-7-7-7-|-8-8-8-8-8-8-8-8-4-4-4-4-4-4-4-4----|


  S S S S S S S S S S S S S S S S   S S S S S S S S S S S S S S S S
|---------------------------------|---------------------------------|
|---------------------------------|---------------------------------|
|---------------------------------|---------------------------------|
|---------------------------------|---------------------------------|
|-3-3-3-3-3-3-3-3-7-7-7-7-7-7-7-7-|-1-1-1-1-1-1-1-1-5-5-5-5-5-5-5-5-|


  S S S S S S S S S S S S S S S S   S S S S S S S S S S S S S S S S
|---------------------------------|------------------------------------|
|---------------------------------|------------------------------------|
|---------------------------------|------------------------------------|
|---------------------------------|------------------------------------|
|-3-3-3-3-3-3-3-3-7-7-7-7-7-7-7-7-|-6-6-6-6-6-6-6-6-4-4-4-4-4-4-4-4----|


 Pre-Verse
  E E T T T T T T T T E E T T T T T T T T   E E T T T T T T T T E E E E
|-----------------------------------------|------------------------------|
|-----------------------------------------|------------------------------|
|-----------------------------------------|------------------------------|
|-----------------------------------------|-------------------------6----|
|-4-3-6-6-6-6-6-6-6-6-4-3-6-6-6-6-6-6-6-6-|-4-3-6-6-6-6-6-6-6-6-4-3---6--|


  E E Q  E E T T T T T T T T   E E Q  E E E E
|----------------------------|----------------|
|----------------------------|----------------|
|----------------------------|----------------|
|----------------------------|------------6---|
|-4-3----4-3-6-6-6-6-6-6-6-6-|-4-3----4-3---6-|


    E E E E E E E E  3x E E E E S S S S S S T T T T
||-------------------||-----------------------------|
||o-----------------o||-----------------------------|
||-------------------||-----------------------------|
||o-----1-------6---o||-----1-----------------------|
||--4-3---1-4-3---6--||-4-3---1-3-3-3-3-3-3-3-3-3-3-|


   Verse
    E E E E E E E E  3x E E E E S S S S S S T T T T
||-------------------||-----------------------------|
||o-----------------o||-----------------------------|
||-------------------||-----------------------------|
||o-----1-------6---o||-----1-----------------------|
||--4-3---1-4-3---6--||-4-3---1-3-3-3-3-3-3-3-3-3-3-|


    E E E E E E E E  3x E E E E S S S S S S T T T T
||-------------------||-----------------------------|
||o-----------------o||-----------------------------|
||-------------------||-----------------------------|
||o-----1-------6---o||-----1-----------------------|
||--4-3---1-4-3---6--||-4-3---1-3-3-3-3-3-3-3-3-3-3-|


 Chorus
  S S S S S S S S S S S S S S S S   S S S S S S S S S S S S S S S S
|---------------------------------|---------------------------------|
|---------------------------------|---------------------------------|
|---------------------------------|---------------------------------|
|---------------------------------|---------------------------------|
|-3-3-3-3-3-3-3-3-7-7-7-7-7-7-7-7-|-1-1-1-1-1-1-1-1-5-5-5-5-5-5-5-5-|


  S S S S S S S S S S S S S S S S   S S S S S S S S S S S S S S S S
|---------------------------------|------------------------------------|
|---------------------------------|------------------------------------|
|---------------------------------|------------------------------------|
|---------------------------------|------------------------------------|
|-3-3-3-3-3-3-3-3-7-7-7-7-7-7-7-7-|-8-8-8-8-8-8-8-8-4-4-4-4-4-4-4-4----|


  S S S S S S S S S S S S S S S S   S S S S S S S S S S S S S S S S
|---------------------------------|---------------------------------|
|---------------------------------|---------------------------------|
|---------------------------------|---------------------------------|
|---------------------------------|---------------------------------|
|-3-3-3-3-3-3-3-3-7-7-7-7-7-7-7-7-|-1-1-1-1-1-1-1-1-5-5-5-5-5-5-5-5-|


  S S S S S S S S S S S S S S S S   S S S S S S S S S S S S S S S S
|---------------------------------|------------------------------------|
|---------------------------------|------------------------------------|
|---------------------------------|------------------------------------|
|---------------------------------|------------------------------------|
|-3-3-3-3-3-3-3-3-7-7-7-7-7-7-7-7-|-6-6-6-6-6-6-6-6-4-4-4-4-4-4-4-4----|


   Breakdown
    S S E S S E S S E E E  8x
||-------------------------||-|
||o-----------------------o||-|
||-------------------------||-|
||o-----------------------o||-|
||--4-3-5-5-4-6-6-5-7-7-8--||-|


    T T T T T T T T T T T T T T T T T T T T T T T T E E   4x
||--------------------------------------------------------||
||o------------------------------------------------------o||
||--------------------------------------------------------||
||o------------------------------------------------------o||
||--4-4-3-3-5-5-5-5-5-5-4-4-6-6-6-6-6-6-5-5-7-7-7-7-7-8---||


 Chorus
  S S S S S S S S S S S S S S S S   S S S S S S S S S S S S S S S S
|---------------------------------|---------------------------------|
|---------------------------------|---------------------------------|
|---------------------------------|---------------------------------|
|---------------------------------|---------------------------------|
|-3-3-3-3-3-3-3-3-7-7-7-7-7-7-7-7-|-1-1-1-1-1-1-1-1-5-5-5-5-5-5-5-5-|


  S S S S S S S S S S S S S S S S   S S S S S S S S S S S S S S S S
|---------------------------------|------------------------------------|
|---------------------------------|------------------------------------|
|---------------------------------|------------------------------------|
|---------------------------------|------------------------------------|
|-3-3-3-3-3-3-3-3-7-7-7-7-7-7-7-7-|-8-8-8-8-8-8-8-8-4-4-4-4-4-4-4-4----|


  S S S S S S S S S S S S S S S S   S S S S S S S S S S S S S S S S
|---------------------------------|---------------------------------|
|---------------------------------|---------------------------------|
|---------------------------------|---------------------------------|
|---------------------------------|---------------------------------|
|-3-3-3-3-3-3-3-3-7-7-7-7-7-7-7-7-|-1-1-1-1-1-1-1-1-5-5-5-5-5-5-5-5-|


  S S S S S S S S S S S S S S S S   S S S S S S S S S S S S S S S S
|---------------------------------|------------------------------------|
|---------------------------------|------------------------------------|
|---------------------------------|------------------------------------|
|---------------------------------|------------------------------------|
|-3-3-3-3-3-3-3-3-7-7-7-7-7-7-7-7-|-6-6-6-6-6-6-6-6-4-4-4-4-4-4-4-4----|


 Breakdown
                                               2/4
  T T T T T T T T T T T T S S S S S S S S S S   T T T T T T T T T T T T S S
|---------------------------------------------|-----------------------------|
|---------------------------------------------|-----------------------------|
|---------------------------------------------|-----------------------------|
|---------------------------------------------|-----------------------------|
|-4-4-4-4-4-4-4-4-4-4-4-4-4---4-4-4-4-4-4-4-4-|-4-4-4-4-4-4-4-4-4-4-4-4-4---|


   Bridge
   4/4
    E E E E E E E E   E E E E E E E E  4x
||------------------|------------------||
||o-----------------|-----------------o||
||------------------|------------------||
||o-4-2-1-2-4-2-4-5-|-4-2-1-2-4-2-4-5-o||
||------------------|------------------||


      Q=60
      S S S S S S S S S S S S S S S S
|-||------------------------------------||
|-||o----------------------------------o||
|-||------------------------------------||
|-||o-4-2-1-2-4-2-4-5-4-2-1-2-4-2-4-5--o||
|-||------------------------------------||


    S S S S S S S S S S S S S S S S     S S S S S S S S S S S S S S S S
||-----------------------------------||---------------------------------|
||o---------------------------------o||---------------------------------|
||-----------------------------------||---------------------------------|
||o---------------------------------o||-4-2-1-2-4-2-4-5-4-2-1-2-4-2-4-5-|
||--4-2-1-2-4-2-4-5-4-2-1-2-4-2-4-5--||---------------------------------|


  Q=120
  T T T T T T T T T T T T T T T T T T T T T T T T T T T T T T T T
|-----------------------------------------------------------------|
|-----------------------------------------------------------------|
|-----------------------------------------------------------------|
|-4-4-4-4-2-2-2-2-1-1-1-1-2-2-2-2-4-4-4-4-2-2-2-2-4-4-4-4-5-5-5-5-|
|-----------------------------------------------------------------|


  E E E E E E E E
|-----------------|
|-----------------|
|-----------------|
|-4-2-1-2-4-2-4-5-|
|-----------------|


 Outro
  E E T T T T T T T T E E T T T T T T T T   E E T T T T T T T T E E E E
|-----------------------------------------|------------------------------*|
|-----------------------------------------|------------------------------*|
|-----------------------------------------|------------------------------*|
|-----------------------------------------|-------------------------6----*|
|-4-3-6-6-6-6-6-6-6-6-4-3-6-6-6-6-6-6-6-6-|-4-3-6-6-6-6-6-6-6-6-4-3---6--*|



Duration Legend
---------------
W - whole; H - half; Q - quarter; E - 8th; S - 16th; T - 32nd; X - 64th; a - acciaccatura
+ - note tied to previous; . - note dotted; .. - note double dotted
Uncapitalized letters represent notes that are staccato (1/2 duration)
Irregular groupings are notated above the duration line
Duration letters will always appear directly above the note/fret number it represents the
duration for.  Duration letters with no fret number below them represent rests.  Multi-
bar rests are notated in the form Wxn, where n is the number of bars to rest for.  Low
melody durations appear below the staff

Tablature Legend
----------------
 h   - hammer-on
 p   - pull-off
 b   - bend
 pb  - pre-bend
 r   - bend release (if no number after the r, then release immediately)
 /\  - slide into or out of (from/to "nowhere")
 s   - legato slide
 S   - shift slide
 - natural harmonic
[n]  - artificial harmonic
n(n) - tapped harmonic
 ~   - vibrato
 tr  - trill
 T   - tap
 TP  - trem. picking
 PM  - palm muting
\n/  - tremolo bar dip; n = amount to dip
 \n  - tremolo bar down
 n/  - tremolo bar up
/n\  - tremolo bar inverted dip
 =   - hold bend; also acts as connecting device for hammers/pulls
 <> - volume swell (louder/softer)
 x   - on rhythm slash represents muted slash
 o   - on rhythm slash represents single note slash

Misc Legend
-----------
 |  - bar
||  - double bar
||o - repeat start
o|| - repeat end
*|  - double bar (ending)
 :  - bar (freetime)
 $  - Segno
 &  - Coda
Tempo markers -  = BPM(8/16=s8/s16), where s8 = swing 8ths, s16 = swing 16ths
            
Submit corrections

comments powered by Disqus
↑ Back to top | Fear Factory Bass for Cyberwaste. Lyrics for acoustic guitar and electric guitar. 1 Tablatures and chords are parodies/interpretations of the original songs. You may use it for private study, scholarship, research or language learning purposes only