» » »

Radiator Bass tabs (ver.2)

Artists:  A B C D E F G H I J K L M N O P Q R S T U V W X Y Z # 

Radiator Bass tabs (ver.2)

Family Force 5
Rating:
0/5 (0 votes)

Hard to play? Try these video lessons and learn fast.
                G---------------------------------|
D---------------------------------|
A-------------3-3-------------3-3-| x2
E-5-5-5-5-5-5-----2-2-2-2-2-2-----|

G---------------------------------|
D---------------------------------|
A-------------3-3-------------3-3-|
E-5-5-5-5-5-5-----2-2-2-2-3-3-----|

G---------------------------------|
D---------------------------------|
A-------------3-3-------------3-2-|
E-5-5-5-5-5-5-----2-2-2-2-3-3-----|

G---------------------------------|
D---------------------------------|
A-------------3-3-------------3-3-| x4(play last 2 softly)
E-5-5-5-5-5-5-----2-2-2-2-2-2-----|

G---------|----|-----------------|
D---------|----|-----------------|
A-------3-|-x2-|-5-3-5-3---------|
E-5-3-5---|----|---------3-2-3-2-|

G----------------------------------------|
D----------------------------------------|
A-----------5-3----5-3----5-3----5-3-5-3-|
E---35---35-----35-----35-----35---------|

G------------------------------|
D------------------------------|
A----5-3----5-3----5-3-5-3-----|
E-35-----35-----35---------5-3-|

G---------------------------------|
D---------------------------------|
A-------------3-3-------------3-3-| x2
E-5-5-5-5-5-5-----2-2-2-2-3-3-----|

G---------------------------------|
D---------------------------------|
A-------------3-3-------------3-3-| x2
E-5-5-5-5-5-5-----2-2-2-2-2-2-----|

G---------|----|-----------------|
D---------|----|-----------------|
A-------3-|-x2-|-5-3-5-3---------| x2
E-5-3-5---|----|---------3-2-3-2-|

G----------------|
D----------------|
A----------------|
E---35---35---35-|

G----------------------------------|
D----------------------------------|
A------3-5-----3-5---5-3-5---5-7-5-|
E-35-3-----3-5-----3-------3-------|

G---------------------------------|
D---------------------------------|
A-----3-5-----3-5-7-5-3---7-5-3---|
E-3-5-----3-5-----------5-------5-|

G---------------------------------|
D---------------------------------|
A-------------3-3-------------3-3-| x2 (play softly)
E-5-5-5-5-5-5-----2-2-2-2-2-2-----|

G---------|----|-----------------|
D---------|----|-----------------|
A-------3-|-x2-|-5-3-5-3---------| x2
E-5-3-5---|----|---------3-2-3-2-|

G---------|----|---|
D---------|----|---|
A-5-3-----|-x3-|---|
E-----5-3-|----|-5-|
            
Hard to play? Try these video lessons and learn fast. | Correct




comments powered by Disqus
↑ Back to top | Tablatures and chords are parodies/interpretations of the original songs. You may use it for private study, scholarship, research or language learning purposes only