» » »

Family Force 5, Radiator Tabs (ver.3)

Artists:  A B C D E F G H I J K L M N O P Q R S T U V W X Y Z # 

Radiator Tabs (ver.3)

Family Force 5 Tabs
Rating:
0/5 (0 votes)
Hard to play? Try these video lessons and learn fast.
                =========================================================================
*************************************************************************
-------------------------------------------------------------------------
                            Radiator-Family Force 5
                           From the Album Dance or Die
-------------------------------------------------------------------------
*************************************************************************
=========================================================================
Tuning:Standard (EBGDAE)

Intro (on synth)

E------------------------------------------------------------------------|
B------------------------------------------------------------------------|
G------------------------------------------------------------------------|
D------------------------------------------------------------------------|
A-------33----------33----------33-------33------------------------------|
E-555555----0222222-----555555----0222222--------------------------------|

Verse

E--7-7-7-7-7-7-10-10-4-4-4-4-4-4-9-9-7-7-7-7-7-7--10-10-4-4-4-4-4-4-10-10-|
B--7-7-7-7-7-7-10-10-4-4-4-4-4-4-9-9-7-7-7-7-7-7--10-10-4-4-4-4-4-4-10-10-|
G--7-7-7-7-7-7-10-10-4-4-4-4-4-4-9-9-7-7-7-7-7-7--10-10-4-4-4-4-4-4-10-10-|
D--7-7-7-7-7-7-10-10-4-4-4-4-4-4-9-9-7-7-7-7-7-7--10-10-4-4-4-4-4-4-10-10-|
A--7-7-7-7-7-7-10-10-4-4-4-4-4-4-9-9-7-7-7-7-7-7--10-10-4-4-4-4-4-4-10-10-|
E--7-7-7-7-7-7-10-10-4-4-4-4-4-4-9-9-7-7-7-7-7-7--10-10-4-4-4-4-4-4-10-10-|

Chorus

E-7-4-7-10-7-4-7-10-7-10-10-12-10-12-10-7-10-7--|reapeat as neccesary
B-7-4-7-10-7-4-7-10-7-10-10-12-10-12-10-7-10-7--|
G-7-4-7-10-7-4-7-10-7-10-10-12-10-12-10-7-10-7--|
D-7-4-7-10-7-4-7-10-7-10-10-12-10-12-10-7-10-7--|
A-7-4-7-10-7-4-7-10-7-10-10-12-10-12-10-7-10-7--|
E-7-4-7-10-7-4-7-10-7-10-10-12-10-12-10-7-10-7--|

Tag: I need a radiator just like you...
E-------------------------------------5-2----------------------------------|
B-------------------------------------5-2----------------------------------|
G-------------------------------------5-2----------------------------------|
D-------------------------------------5-2----------------------------------|
A-------------------------------------5-2----------------------------------|
E-------------------------------------5-2----------------------------------|

Guitar Solo

E--------------------------------------------------------------------------|
B--------------------------------------------------------------------------|
G--------------------------------------------------------------------------|
D--------------------------------------------------------------------------|
A-0-0-0-2-2-2-3-3-3-5-5-5--0-0-0-2-2-2-3-3-3-5-5-5-0-0-0-7-7-7-5-5-5-7-7-7-|
E--------------------------------------------------------------------------|

E--------------------------------------------------------------------------|
B--------------------------------------------------------------------------|
G--------------------------------------------------------------------------|
D--------------------------------------------------------------------------|
A-0-0-0-7-7-7-8-8-8-7-7-7-7-5-7-3-2-1-3------------------------------------|


E| /  slide up
| \  slide down
| h  hammer-on
| p  pull-off
| ~  vibrato
| +  harmonic
| x  Mute note
============================================================================
            

comments powered by Disqus
↑ Back to top | Family Force 5 Tabs for Radiator. Lyrics for acoustic guitar and electric guitar. Tablatures and chords are parodies/interpretations of the original songs. You may use it for private study, scholarship, research or language learning purposes only