» » »

Family Force 5, Radiator Tabs (ver.2)

Artists:  A B C D E F G H I J K L M N O P Q R S T U V W X Y Z # 

Radiator Tabs (ver.2)

Family Force 5 Tabs
Rating:
3/5 (3 votes)
Radiator lessons Tabs too difficult? Try these video lessons and learn fast
                
Tuning: Drop D

Key:
Slide      s
Hammer On  h
Dead Note  x
Let Ring   ~


Well, I've tabbed the song as two guitars, but the second guitar only plays little bits 
the song, it's silent a lot of the time. Listen carefully for it. Thats pretty much it. 
rate and comment/correct.

======GUITAR=1======

Verse (0:07) Silent

Pre-chorus (0:36)
e|--------------------|----------====-----|
B|--------------------|----------=x2=-----|
G|--------------------|----------====-----|
D|--5h7-7777-5h7-7777-|-5h7-7777-5h7-7-5--|
A|--5h7-7777-5h7-7777-|-5h7-7777-5h7-7-5--|
D|--5h7-7777-5h7-7777-|-5h7-7777-5h7-7-5--|

Chorus (0:43) Play x2
e|---------------|---------------------------|
B|---------------|---------------------------|
G|---------------|---------------------------|
D|--777777777777-|-101010101010101010101010--|
A|--777777777777-|-101010101010101010101010--|
D|--777777777777-|-101010101010101010101010--|

e|---------------|----------------|
B|---------------|----------------|
G|---------------|----------------|
D|--333333333333-|-222222-555555--|
A|--333333333333-|-222222-555555--|
D|--333333333333-|-222222-555555--|

Post-chorus (0:58)
e|--------------------|----------====-----|
B|--------------------|----------=x2=-----|
G|--------------------|----------====-----|
D|--5h7-7777-5h7-7777-|-5h7-7777-5h7-7-5--|
A|--5h7-7777-5h7-7777-|-5h7-7777-5h7-7-5--|
D|--5h7-7777-5h7-7777-|-5h7-7777-5h7-7-5--|

Verse 2 (1:05)
e|------|-------------|
B|------|-------------|
G|------|-------------|
D|--7s--|-----xxxxxx--|
A|--7s--|-----xxxxxx--|
D|--7s--|-----xxxxxx--|

Chorus (1:34) Play x2
e|---------------|---------------------------|
B|---------------|---------------------------|
G|---------------|---------------------------|
D|--777777777777-|-101010101010101010101010--|
A|--777777777777-|-101010101010101010101010--|
D|--777777777777-|-101010101010101010101010--|

e|---------------|----------------|
B|---------------|----------------|
G|---------------|----------------|
D|--333333333333-|-222222-555555--|
A|--333333333333-|-222222-555555--|
D|--333333333333-|-222222-555555--|

Post-chorus (1:49)
e|--------------------|----------====-----|
B|--------------------|----------=x2=-----|
G|--------------------|----------====-----|
D|--5h7-7777-5h7-7777-|-5h7-7777-5h7-7-5--|
A|--5h7-7777-5h7-7777-|-5h7-7777-5h7-7-5--|
D|--5h7-7777-5h7-7777-|-5h7-7777-5h7-7-5--|

Solo (2:03) Play x2
e|---------------|---------------------------|
B|---------------|---------------------------|
G|---------------|---------------------------|
D|--777777777777-|-101010101010101010101010--|
A|--777777777777-|-101010101010101010101010--|
D|--777777777777-|-101010101010101010101010--|

e|---------------|----------------|
B|---------------|----------------|
G|---------------|----------------|
D|--333333333333-|-222222-555555--|
A|--333333333333-|-222222-555555--|
D|--333333333333-|-222222-555555--|

Chorus (2:18) Play x4
e|---------------|---------------------------|
B|---------------|---------------------------|
G|---------------|---------------------------|
D|--777777777777-|-101010101010101010101010--|
A|--777777777777-|-101010101010101010101010--|
D|--777777777777-|-101010101010101010101010--|

e|---------------|----------------|
B|---------------|----------------|
G|---------------|----------------|
D|--333333333333-|-222222-555555--|
A|--333333333333-|-222222-555555--|
D|--333333333333-|-222222-555555--|

Outro (2:47)
e|--------------------|----------====-----|
B|--------------------|----------=x2=-----|
G|--------------------|----------====-----|
D|--5h7-7777-5h7-7777-|-5h7-7777-5h7-7-5--|
A|--5h7-7777-5h7-7777-|-5h7-7777-5h7-7-5--|
D|--5h7-7777-5h7-7777-|-5h7-7777-5h7-7-5--|

e|------|
B|------|
G|------|
D|--7s--|
A|--7s--|
D|--7s--|

======GUITAR=2======

Verse 1 (0:07) “affection, reflection…”
e|--17~--|--15~--|--10~--|-5~--7~--|
B|-------|-------|-------|---------|
G|-------|-------|-------|---------|
D|-------|-------|-------|---------|
A|-------|-------|-------|---------|
D|-------|-------|-------|---------|

e|--5~--|--15~--|--10~--|--5~--7~--|
B|------|-------|-------|----------|
G|------|-------|-------|----------|
D|------|-------|-------|----------|
A|------|-------|-------|----------|
D|------|-------|-------|----------|

Pre-chorus (0:36) Silent

Chorus (0:43) Silent

Post Chorus (0:58) Silent

Verse 2 (1:05)
e|--5~--|--15~--|--10~--|-5~--7~--|
B|------|-------|-------|---------|
G|------|-------|-------|---------|
D|------|-------|-------|---------|
A|------|-------|-------|---------|
D|------|-------|-------|---------|

e|--5~--|--15~--|--10~--|
B|------|-------|-------|
G|------|-------|-------|
D|------|-------|-------|
A|------|-------|-------|
D|------|-------|-------|

Chorus (1:34) Silent

Post Chorus (1:49)

Solo (2:03)
e|------------8-8-108------------------8-8-108----------|
B|--8-10~--10---------10-8----8-10--10---------10-8-10--|
G|-9------9----------------10------9--------------------|
D|------------------------------------------------------|
A|------------------------------------------------------|
D|------------------------------------------------------|

e|------------8-8-108------------------777777-888-101010--|
B|--8-10~--10---------10-8----8-10--10--------------------|
G|-9------9----------------10------9----------------------|
D|--------------------------------------------------------|
A|--------------------------------------------------------|
D|--------------------------------------------------------|

Chorus (2:18)
e|--8~----|-7s12~-|-12-12-13-12-10--------|----------------------------|
B|--------|-------|----------------13-13~-|----121212121212-13131315~--|
G|--------|-------|-----------------------|----------------------------|
D|--------|-------|-----------------------|----------------------------|
A|--------|-------|-----------------------|----------------------------|
D|--------|-------|-----------------------|----------------------------|

e|------------8-8-108------------------8-8-108----------|
B|--8-10~--10---------10-8----8-10--10---------10-8-10--|
G|-9------9----------------10------9--------------------|
D|------------------------------------------------------|
A|------------------------------------------------------|
D|------------------------------------------------------|

e|-12-12-12~--8-8-108------------------777777-888-101010--5~--|
B|-------------------10-8----8-10--10-------------------------|
G|------------------------10------9---------------------------|
D|------------------------------------------------------------|
A|------------------------------------------------------------|
D|------------------------------------------------------------|

Outro (2:47) Silent
            

comments powered by Disqus
↑ Back to top | Family Force 5 Tabs for Radiator. Lyrics for acoustic guitar and electric guitar. Tablatures and chords are parodies/interpretations of the original songs. You may use it for private study, scholarship, research or language learning purposes only