» » »

Family Force 5, Peachy Tabs (ver.1)

Artists:  A B C D E F G H I J K L M N O P Q R S T U V W X Y Z # 

Peachy Tabs (ver.1)

Family Force 5 Tabs
Rating:
5/5 (5 votes)
Hard to play? Try these video lessons and learn fast.
                (Intro)
I got bored and decided to tab this out


e|---12--10p9-10p9------|
B|------------------10--|
G|-9--------------------|
D|----------------------|
A|----------------------|
D|----------------------|


e|-------------------|
B|-------------------|
G|---------77x-7x-7--|
D|-22222---77x-7x-7--|
A|-22222---55x-5x-5--|
D|-22222-------------|
            

comments powered by Disqus
↑ Back to top | Family Force 5 Tabs for Peachy. Lyrics for acoustic guitar and electric guitar. Tablatures and chords are parodies/interpretations of the original songs. You may use it for private study, scholarship, research or language learning purposes only