» » »

Family Force 5, Peachy Tabs (ver.2)

Artists:  A B C D E F G H I J K L M N O P Q R S T U V W X Y Z # 

Peachy Tabs (ver.2)

Family Force 5 Tabs
 Rating:
4.2/5 (5 votes)
Peachy lessons Tabs too difficult? Try these video lessons and learn fast
1
                
Drop D Tuning

I'm pretty sure this is right, some stuff in the solo might be a bit off but other than 
it should bu algud.

Intro
Guitar 1
e|----12--10p9-10p9------|         e|----12s0--|
B|-------------------10--|         B|----------|
G|--9--------------------| x3 then G|--9-------|
D|-----------------------|         D|----------|
A|-----------------------|         A|----------|
D|-----------------------|         D|----------|

Guitar 2
e|---------------------|          e|---------------------|
B|---------------------|          B|---------------------|
G|---------77x-7x-7-7--| x3 then  G|---------77x-7x-7-7--|
D|--22222--77x-7x-7-7--|          D|--77777--77x-7x-7-7--|
A|--22222--55x-5x-5-5--|          A|--77777--55x-5x-5-5--|
D|--22222--------------|          D|--77777--------------|

Pre Chorus
Guitar 2
e|-----------|
B|-----------|
G|-------7~--|
D|--5~---7~--|
A|--5~---5~--|
D|--5~-------|

Chorus
Guitar 1
e|----12--10p9-10p9------|         e|----10~---|
B|-------------------10--|         B|----------|
G|--9--------------------| x3 then G|--7-------|
D|-----------------------|         D|----------|
A|-----------------------|         A|----------|
D|-----------------------|         D|----------|

Guitar 2
e|---------------------|          e|---------------------|
B|---------------------|          B|---------------------|
G|---------77x-7x-7-7--| x3 then  G|---------77x-7x-7-7--|
D|--22222--77x-7x-7-7--|          D|--77777--77x-7x-7-7--|
A|--22222--55x-5x-5-5--|          A|--77777--55x-5x-5-5--|
D|--22222--------------|          D|--77777--------------|

Bridge
Guitar 2
e|-------------------|         e|--------------------|
B|-------------------|         B|--------------------|
G|---------------12--| x3 Then G|--------------------|
D|--5s7-7x-7x-7-7-x--|         D|--5s7-7x-7x-7-7777--|
A|--5s7-7x-7x-7-710--|         A|--5s7-7x-7x-7-7777--|
D|--5s7-7x-7x-7-7----|         D|--5s7-7x-7x-7-7777--|

Solo
Guitar 1
e|---------------------------------------------------------10-10--|
B|--10p9-9-10p9-9-10p9-9-10p9-9-10p9-9-10p9-9-10p9-9-10p9-9-------|
G|----------------------------------------------------------------|
D|----------------------------------------------------------------|
A|----------------------------------------------------------------|
D|----------------------------------------------------------------|

e|----------10----------10p9-9-10p9-9-10p9-9-10p9-9-10p9-----|
B|------9h10--10p9-10-10---------------------------------10--|
G|--9h11----------9------------------------------------------|
D|-----------------------------------------------------------|
A|-----------------------------------------------------------|
D|-----------------------------------------------------------|

e|----12-----------12-10-------------10----10----10----10----10--|
B|------10s12s3---------10s12s3--9h10--9h10--9h10--9h10--9h10----|
G|--9-----------7-9----------------------------------------------|
D|---------------------------------------------------------------|
A|---------------------------------------------------------------|
D|---------------------------------------------------------------|

e|--19-17-16-14-----------11----|
B|-------------17-15-14h15--14--|
G|------------------------------|
D|------------------------------|
A|------------------------------|
D|------------------------------|

Guitar 2
e|---------------------|          e|---------------------|
B|---------------------|          B|---------------------|
G|---------77x-7x-7-7--| x3 then  G|---------77x-7x-7-7--|
D|--22222--77x-7x-7-7--|          D|--77777--77x-7x-7-7--|
A|--22222--55x-5x-5-5--|          A|--77777--55x-5x-5-5--|
D|--22222--------------|          D|--77777--------------|

Intro
Verse
Pre-chorus
Chorus x2
Verse
Pre-chorus
Chorus x2
Bridge
Solo
Chorus x4

Key:
s   Slide
x   Dead Note
h   Hammer On
p   Pull Off
            
Submit corrections

comments powered by Disqus
↑ Back to top | Family Force 5 Tabs for Peachy. Lyrics for acoustic guitar and electric guitar. 1 Tablatures and chords are parodies/interpretations of the original songs. You may use it for private study, scholarship, research or language learning purposes only