» » »

Family Force 5, Peachy Bass tabs (ver.1)

Artists:  A B C D E F G H I J K L M N O P Q R S T U V W X Y Z # 

Peachy Bass tabs (ver.1)

Family Force 5 Tabs
 Rating:
4/5 (4 votes)
Peachy lessons Tabs too difficult? Try these video lessons and learn fast
1
                -------------------------------------------------------------------------------
-------------------------------------------------------------------------------

Tuning: Standard

Intro
G|-------------------|   |-------------------|
D|-------------------|   |-------------------|
A|-----7~--5-4-5-4-0-|   |---------55--5--55-|
E|-0~----------------|x3 |--0~---------------|

Verse
G|----|---------------------------|   |-----------|
D|----|---------------------------|   |-----------|
A|----|----------------55--77-----|   |-----------|
E|-0~-|-0-3-00--000------------7\-|x6 |-0-3-00--0-|

Chorus x2
G|-------------------|   |-------------------|
D|-------------------|   |-------------------|
A|-----7~--5-4-5-4-0-|   |---------55--5--55-|
E|-0~----------------|x3 |--0~---------------|

Verse
G|----|---------------------------|   |-----------|
D|----|---------------------------|   |-----------|
A|----|----------------55--77-----|   |-----------|
E|-0~-|-0-3-00--000------------7\-|x6 |-0-3-00--0-|

Chorus x2
G|-------------------|   |-------------------|
D|-------------------|   |-------------------|
A|-----7~--5-4-5-4-0-|   |---------55--5--55-|
E|-0~----------------|x3 |--0~---------------|

Bridge
G|-----------------------------|             |--------------|
D|-----------------------------|             |--------------|
A|-5/7-7-7---5/7-7-7---5/7-7-7-|Repeat       |--------------|Repeat After:
E|-----------------------------|Until Break: |-0~---0~---0~-|”Musical Genius”

Chorus x4
G|-------------------|   |-------------------|         
D|-------------------|   |-------------------|         
A|-----7~--5-4-5-4-0-|   |---------55--5--55-|        
E|-0~----------------|x3 |--0~---------------|  

       |----|
       |----|
       |-7~-|
End On:|----|

| /  slide up
| \  slide down
| h  hammer-on
| p  pull-off
| ~  let note ring
| +  harmonic
| x  Mute note
===============================================================================
            
Submit corrections

comments powered by Disqus
↑ Back to top | Family Force 5 Bass for Peachy. Lyrics for acoustic guitar and electric guitar. 1 Tablatures and chords are parodies/interpretations of the original songs. You may use it for private study, scholarship, research or language learning purposes only