>
 >
What A Catch Donnie 5

What A Catch Donnie 5 Guitar Tabs

Fall Out Boy - What A Catch Donnie 5 chords, tabs, tablatures, lyrics

Guitar lessons | Add/correct | Request | Top 50 tabs Artists:  A B C D E F G H I J K L M N O P Q R S T U V W X Y Z 0-9

What A Catch Donnie 5 Guitar Tabs – Fall Out Boy

CD, Sheet music, Poster

Do you like What A Catch Donnie 5? Share with your friends now
Bass TabsChordsChords v2Chords v3Chords v4Chords v5Chords v6Chords v7TabsTabs v2Tabs v3Tabs v4Tabs v5UkuleleUkulele v2
Tuning: Standard [EADGBe]

Notes:  *I feel like the other versions of this song are missing some of the
             intricacies that are being played and that the bridge is
             actually more than a repetition of the chorus
        *Please let me know your thoughts in the comments section and rank
             the tab. I'm happy to make improvements!
        *At Bridge Break, play the Aadd9, then only the roots thereafter
        *C Riff:
                             e|--0---0-----------|
                             B|--1---1-----------|
                             G|--0---0-----------|
                             D|--2---2-----2-3---|
                             A|--3---3---3-------|
                             E|--x---x-----------|
                                 1 + 2 + 3 + 4 +
        *F#m Riff:
                             e|-(2)--------------|-----------0---0---|
                             B|--2---------------|-------5---0---0---|
                             G|--2-----1-2---4---|--4/6------1---1---|
                             D|--4---4-----------|-----------2---2---|
                             A|--4---------------|-----------2---2---|
                             E|--2---------------|-----------0---0---|
                                 1 + 2 + 3 + 4 +    1  + 2 + 3 + 4 +
        *Pickup Riff:
                             e|------------------|
                             B|------------------|
                             G|------------------|
                             D|------------------|
                             A|------------------|
                             E|----------0-4-5---|
                                 1 + 2 + 3 + 4 +
Chords Used:
     Aadd9   Aadd9/G#     F#m        E      D6add9   D6add9/C#     Bm
 e|----0----|----0----|----x----|----0----|----0----|----0----|----2----|
 B|----0----|----0----|----x----|----0----|----0----|----0----|----3----|
 G|----6----|----6----|----x----|----1----|----7----|----6----|----4----|
 D|----7----|----7----|----4----|----2----|----7----|----7----|----4----|
 A|----7----|----7----|----4----|----2----|----5----|----4----|----2----|
 E|----5----|----4----|----2----|----0----|----x----|----x----|----x----|


       F         C         Dm        Bb       F/A        Gm      Asus2
 e|----1----|----0----|----1----|----1----|----x----|----3----|----0----|
 B|----1----|----1----|----3----|----3----|----1----|----3----|----0----|
 G|----2----|----0----|----2----|----3----|----2----|----3----|----2----|
 D|----3----|----2----|----0----|----3----|----3----|----5----|----2----|
 A|----3----|----3----|----x----|----1----|----0----|----5----|----0----|
 E|----1----|----x----|----x----|----x----|----x----|----3----|----x----|
_________________________________________________________________________

[INTRO]
Aadd9   Aadd9/G#
I  got  troubled thoughts
        F#m                  E
And the self-esteem to match
         D6add9  D6add9/C#
What a catch,
        Bm   Asus2  E  Aadd9  Aadd9  Aadd9  *Aadd9
What a catch

{------------------CHORD PROGRESSION FOR INTRO-----------------}
| Aadd9  - - - | Aadd9/G#  - - - | F#m   - - - | E     -  -  - |
| D6add9 - - - | D6add9/C# - - - | Bm    - - - | Asus2 -  E  - |
| Aadd9  - - - | Aadd9     - - - | Aadd9 - - - | Aadd9 -  *  - |

                                                            *Pickup Riff
_________________________________________________________________________


[VERSE 1]
Aadd9        Aadd9/G#
You'll never catch us
        F#         *E (Pickup Riff)
So just let me be
               D6add9
Said I'll be fine
                 D6add9/C#
Till the hospital            
            F#m
Or American Embassy


E    D6add9     D6add9/C#        *F#m Riff
Miss Flack said I still want you back
      E      D6add9   D6add9/C#        F#
Yeah, Miss Flack said I still want you back


{------------------CHORD PROGRESSION FOR VERSE-----------------}
| Aadd9  - - - | Aadd9/G#  - - - | F#m   - - - | E     -  *  - |
| D6add9 - - - | D6add9/C# - - - | F#m   - - - | F#m   -  E  - |
| D6add9 - - - | D6add9/C# - - - | *F#m  - - - | F#m   -  E  - |
| D6add9 - - - | D6add9/C# - - - | F#m   - - - |
_________________________________________________________________________

[PRECHORUS]
e|-----------------|
B|-----------------|
G|-----------------|
D|-----------------|
A|-----------------|
E|--5---4---3---2--|
    1 + 2 + 3 + 4 +
_________________________________________________________________________

[CHORUS]
F     C
I got troubled thoughts
        Dm                 *C Riff
And the self-esteem to match
         Bb   F/A
What a catch
         Gm   *C Riff
What a catch

              F
And all I can think of
C                    Dm                  *C Riff
Is the way I'm the one who charmed the one
            Bb      F/A
Who gave up on you
            Gm      C
Who gave up on you

{--------CHORD PROGRESSION FOR CHORUS------}
| F  - - - | C   - - - | Dm - - - | C - - - |
| Bb - - - | F/A - - - | Gm - - - | C - - - |
| F  - - - | C   - - - | Dm - - - | C - - - |
| Bb - - - | F/A - - - | Gm - - - | C - - - |
_________________________________________________________________________

[PREVERSE]
| Aadd9 - - - | Aadd9/G# - - - | F# - - - | E - * - |
                                                             *Pickup Riff
_________________________________________________________________________

[VERSE 2]
Aadd9                Aadd9/C#
       They say the captain
          F#             *E (Pickup Riff)
Goes down with the ship
             D6add9       D6add9/C#
So, when the world ends
            F#
Will God go down with it?


E    D6add9     D6add9/C#        *F#m Riff
Miss Flack said I still want you back
      E      D6add9   D6add9/C#        F#
Yeah, Miss Flack said I still want you back back back
_________________________________________________________________________

[PRECHORUS]
e|-----------------|
B|-----------------|
G|-----------------|
D|-----------------|
A|-----------------|
E|--5---4---3---2--|
    1 + 2 + 3 + 4 +
_________________________________________________________________________

[CHORUS]
F     C
I got troubled thoughts
        Dm                    *C Riff
And the self-esteem to match
         Bb   F/A
What a catch
         Gm   *C Riff
What a catch

              F
And all I can think of
C                    Dm                  *C Riff
Is the way I'm the one who charmed the one
            Bb      F/A
Who gave up on you
            Gm      C
Who gave up on you
_________________________________________________________________________

[BRIDGE]
|---0---|---3---|---2---|---1---|---0---|---0---|---1---|---1---|
|---0---|---3---|---2---|---1---|---0---|---0---|---1---|---1---|
|---6---|---3---|---2---|---2---|---1---|---1---|---2---|---2---|
|---7---|---5---|---4---|---3---|---2---|---2---|---3---|---3---|
|---7---|---5---|---4---|---3---|---2---|---2---|---3---|---3---|
|---5---|---3---|---2---|---1---|---0---|---0---|---1---|---1---|
Na na  na na na
Na na  na na na
Na na  na na na  
Na na  na na


|--0--|--0--|--0--|--0--|--3--|--3--|--0--|--1-----------3---|
|--0--|--0--|--0--|--0--|--3--|--3--|--0--|--1-----------3---|
|--6--|--7--|--9--|--7--|--3--|--3--|--6--|--2-----------3---|
|--7--|--7--|--9--|--7--|--5--|--5--|--7--|--3-----------5---|
|--4--|--5--|--7--|--5--|--5--|--3--|--4--|--3-----------5---|
|--x--|--x--|--x--|--x--|--3--|--3--|--x--|--1-----------3---|
What a catch                                 1 + 2 + 3 + 4 +
What a catch
What a catch
What a catch

{--------------------CHORD PROGRESSION FOR BRIDGE-------------------}
| Aadd9 - - -     | Gm - - -     | Bm - - -        | F -  -  -      |
| E - - -         | E - - -      | F - - -         | F - - -        |
| D6add9/C# - - - | D6add9 - - - | E - - -         | D6add9 -  -  - |
| Gm - - -        | Gm - - -     | D6add9/C# - - - | F - - G        |
_________________________________________________________________________

[BRIDGE BREAK] ***See Notes Section***
Aadd9  Aadd9/G#          F#
I will never end up like him
           E              D6add9
Behind my back I already am

Keep a calendar
D6add9/C#         Bm
This way you will always know
_________________________________________________________________________

[PRECHORUS]
e|-----------------|
B|-----------------|
G|-----------------|
D|--7---6---5---4--|
A|--7---6---5---4--|
E|--5---4---3---2--|
    1 + 2 + 3 + 4 +
_________________________________________________________________________

[CHORUS]
F     C
I got troubled thoughts
        Dm                    *C Riff
And the self-esteem to match
         Bb   F/A
What a catch
         Gm   *C Riff
What a catch

              F
And all I can think of
C                    Dm                  *C Riff
Is the way I'm the one who charmed the one
            Bb      F/A
Who gave up on you
            Gm      C
Who gave up on you

F     C   
I got troubled thoughts
        Dm               *C Riff
And the self-esteem to match
      *Bb     *F/A       *Gm
What a catch,      what a catch
                                                            *Single Strum
_________________________________________________________________________





Comments


Popular Fall Out Boy tabs & chords
Carpal Tunnel Of Love Bass Tabs
Saturday 3 Bass Tabs
Save Rock And Roll 2 Bass Tabs
Bang The Doldrums 2 Tabs
Coffees For Closers Tabs
Golden 1 Tabs
Sophomore Slump Or Comeback Of The Year Tabs
Tell That Mick He Just Made My List Of Things To Do Today 1 Tabs
Alone Together Ukulele
Americas Suitehearts 2 Ukulele


Song lyrics



↑ Back to top | Tablatures and chords are parodies/interpretations of the original songs. You may use it for private study, scholarship, research or language learning purposes only
© 2014 AZChords.com Contact us | Privacy policy | DMCA | Add/correct tabs | Request tabs | Top 50 tabs