» » »

What A Catch Donnie Tabs (ver.3)

Artists:  A B C D E F G H I J K L M N O P Q R S T U V W X Y Z # 

What A Catch Donnie Tabs (ver.3)

Fall Out Boy
Rating:
0/5 (0 votes)

Tabs too difficult? Try these video lessons and learn fast.
                                  What a Catch Donnie

 my other 2 tabs for this song suck really bad. but, this one is dead on.

intro(guitar comes in after patrick is done singing)
G1
e|----------|
b|----------|
g|-/99999999|
d|----------|
a|-/77777777|
D|----------|

Verse 1 
G1
e|--------------------8--------------|
b|------------2-4-6-8----------10-12\|
g|7~--6~--4~--2-4--------------------|
d|----------------------7~~-6~~-8-10\|
a|-----------------------------------|
D|-----------------------------------|

PRE-CHORUS
e|----------------------------|
b|-------------5~-5/7~-5------|
g|---1-2-4-4/6----------------|
d|-4----------------------7654|
a|------------------------7654|
D|------------------------7654|

chorus                                       END ON
e|--------------------------------------|  e|-----|
b|--------------------------------------|  b|-----|
g|-----------------------------/5~------|  g|-2~~~|
d|3333-2222-1111-00----3---------------3|X2d|-2~~~|
a|3333-2222-1111-00-35---3H5P3------35--|  a|-0~~~|
D|3333-2222-1111-00---------------------|  D|-----|

VERSE 2
e|-------------------------|
b|-----------13\5-3-2------|
g|----7-7~------------10-12|
d|7-9----------------------|
a|---------------------8-10|
D|-------------------------|

pre chorus

chorus x2 (DON'T end on the last chord)

bridge
e|---------------------------------------------------------------|
b|---------------------------------------------------------------|
g|---------------------------------------------------------------|
d|4-4-4-4-3-3-3-3-2-2-2-2-1-1-1-1-0-0-0-0-0-0-0-1-2-2-2-2-2-2-2-1|
a|4-4-4-4-3-3-3-3-2-2-2-2-1-1-1-1-0-0-0-0-0-0-0-1-2-2-2-2-2-2-2-1|
D|4-4-4-4-3-3-3-3-2-2-2-2-1-1-1-1-0-0-0-0-0-0-0-1-2-2-2-2-2-2-2-1|

bridge cont.
e|------------------------------------------------------------------|
b|------------------------------------------------------------------|
g|----------------------------------------------------------------2~|
d|----------------------------------------------------------------2~|
a|0-0-0-0-1-1-1-1-2-2-2-2-3-3-3-3-4-4-4-4-4-4-4-4-3-3-3-3-2-2-2-2-0~|
D|0-0-0-0-1-1-1-1-2-2-2-2-3-3-3-3-4-4-4-4-4-4-4-4-3-3-3-3-2-2-2-2---|

play chorus till end (last time DO end on last chord)
            
Tabs too difficult? Try these video lessons and learn fast.




comments powered by Disqus
↑ Back to top | Tablatures and chords are parodies/interpretations of the original songs. You may use it for private study, scholarship, research or language learning purposes only