» » »

What A Catch Donnie Tabs (ver.2)

Artists:  A B C D E F G H I J K L M N O P Q R S T U V W X Y Z # 

What A Catch Donnie Tabs (ver.2)

Fall Out Boy
Rating:
0/5 (0 votes)

Hard to play? Try these video lessons and learn fast.
                                      what a catch donnie

band:fall out boy
album:folie a duex

                       before i start i wanna give a big thank you to rhyezkie,who wrote 
bass tab,he made this so much easier.

intro (you can bend this or slowly pick it until bass enters)
e:------------------------------------|
b:------------------------------------|
g:-7----------------------------------|
d:------------------------------------|
a:------------------------------------|
e:------------------------------------|

verse (you'll never catch us...)
e:----------------------6-------|
b:---------------2-4-6h8--------|
g:-7---6---4---2-2-4------------|
d:------------------------7---6~|
a:------------------------------|
e:------------------------------|

pre-chorus (miss flack...)
e:---------------------------------------|
b:---------------------------------------|
g:--11-13-----------7/9-11-13--2---------|
d:---------------7-9--------------7-6-5-4|
a:-----------7-9------------------7-6-5-4|
e:---------79---------------------5-4-3-2|

chorus (ive got troubled thoughts...) evrything but the hammer ons are optional cuz im 
totally sure all of tose notes are in there.
e:--------------------------------------|
b:--------------------------------------|
g:-10-10-9-9-7-7-5------------3h5p3-5~--|
d:-10-10-9-9-7-7-5----3----3h5--------2~|x2
a:-8--8--7-7-5-5-3-3h5--3h5-----------0~|
e:--------------------------------------|

verse
e:--------------------|
b:---------13\5-3-2-2~|
g:---77~--------------|
d:-79-----------------|
a:--------------------|
e:--------------------|

pre-chorus x1

chorus

bridge all those 1s are elevens
e:-----------------------------------------|
b:-----------------------------------------|
g:-----------------------------------------|
d:-7777-5555-4444-33333-9999910-1111111111-|
a:-7777-5555-4444-33333-77777-8-99999------|
e:-5555-3333-2222-11111--------------------|

rest of bridge
e:---------------------------|
b:---------------------------|
g:1212121212--------five10-2~|
d:1212121212-five11-five10-2~|
a:1010101010-99999--88888--0~|
e:---------------------------|

then just play the chorus till the song is over.PLEASE RATE.
            
Hard to play? Try these video lessons and learn fast. | Correct




comments powered by Disqus
↑ Back to top | Tablatures and chords are parodies/interpretations of the original songs. You may use it for private study, scholarship, research or language learning purposes only