>
 >
Golden 3

Golden 3 Guitar Tabs

Fall Out Boy - Golden 3 chords, tabs, tablatures, lyrics

Guitar lessons | Add/correct | Request | Top 50 tabs Artists:  A B C D E F G H I J K L M N O P Q R S T U V W X Y Z 0-9

Golden 3 Guitar Tabs – Fall Out Boy

CD, Sheet music, Poster

Do you like Golden 3? Share with your friends now
Bass TabsChordsChords v2Chords v3Chords v4Chords v5Chords v6Chords v7Chords v8TabsTabs v2Tabs v3Ukulele

REAL FANS SUPPORT BANDS BY PURCHASING THEIR CD'S!!!


Tuning: Standard (5-8 cents down to match the link!!)

Capo 1 (chords are relative to the capo!)


 = hold note
^ = vibrate
p = pull off
h = hammer on
/ = slide up
\ = slide down
x = mute


Here is a link to a great cover. Unfortunately poor sound quality but its
Pretty much what i tabbed out ☺

READ:
This tab contains the correct chords for ACOUSTIC PLAY, patricks vocals as well as my own
 interpretation of the song. So dont attempt to play it on
piano, the chords are very basic since I dont care about names and maj7s...
Also  ::: THIS TAB REQUIRES FINGER-PICKING :::

And dont forget the CAPO!

Enjoy!






Chords:
  Cmaj7 G    B7/D#     E   Em F#/D D  D/B   B7/D#
E------------0---------0---0----------------2--------------------|
B---0---0----0---4-----0---0---3---3-(0)---0---7----------------|
G---0---0----0-o-2-----1---0---2---2---2----2-o-4----------------|
D---2---0----1-r-1-----2---2---0---0---0----1-r-4----------------|
A---3---x----2---2-----2---2---0--(0)--2----2---6----------------|
E-------3--------------0---0---2---------------------------------|
            Verse 1                        Verse 2


Legend for strumming:
E-------------------------------------------------------|
B------0--------------0-------0--------0---------------|
G-----0-------------0---------0--------0---------------|
D----2------------2--------------------(2)--------------|
A---3-----------3-------------3--------3---------------|
E-------------------------------------------------------|
 Slow strumm | each picked | hold em | add () if you want to, sound good as well
--> most notes that are kept holding are the chords main notes. Dont worry about it too 
much, its mostly for fancy purposes ;)



Intro:
    Cmaj7               Cmaj7
E---------------------------------------------------|
B---0--0-0-0-0-0-0-0---0--0-0-0-0-0-0-0-----------|
G---0--0-0-0-0-0-0-0---0--0-0-0-0-0-0-0-----------|
D-(2)----------------(2)-------------------------|
A---3------------------3--------------------------|
E---------------------------------------------------|


Verse I: Hold all the notes
    Cmaj7                   G
E-----------------------------------------------------------|
B------0------0------------------0------------------------|
G-----0-----0-----0--------2---------2h4-2-0--------------|
D----2----2-----------------------------------0------------|
A---3-----------3---3--------------------------------------|
E---------------------------3--3---3-------------3---------|

    Cmaj7                 G         Am       C/B
E--------------------------------------------------------|
B---0--1-3-------------------0---------0----------------|
G---0---------0-2---0----0-2---------0--------0---------|
D--------------------------------------------------------|
A---3-------3-----3----------------0--------2-----------|
E-------------------------3------------------------------|

    Cmaj7                 G
E-----------------------------------------------------|
B---0--0-0-0-0-----------------3--------0----------|
G---0--0-0-0---2-0------------------2---------------|
D-------------------2-----0--------------------------|
A---3------------------------------------------------|
E-------------------------3--3----3----3---3---------|

    B7/D#                E
E-----------0-------------------0-------------|
B---0--------------0----0---------------------|
G---0----0-------0-h1---1----1------1---------|
D-------1-------------------2-----2-----------|
A---2----------2-------------------------------|
E------------------------0---------------------|


Verse II:  Hold all notes till B7!!
        C                      G
E---0----------0-----------0---------0-----------------|
B-----3----------3-----------3-----------3-------------|
G---------0----------0-----------0---------------------|
D------------------------------------------------------|
A-------3----------3-----------------------------------|
E------------------------------3-------3---3-----------|

        C                      G
E---0----------0-----------0---------0------3-------------|
B-----3----------3-----------3-------------3--------------|
G---------0----------0-----------0--------0---------------|
D---------------------------------------------------------|
A-------3----------3--------------------------------------|
E------------------------------3-------3-----(3)----------|

        C
E---0----------0---------------------------------------------|
B-----3----------3-------3-------3-1-0-1--1h3-1-0-1----------|
G---------0----------0-----------0---------------------------|
D------------------------------------------------------------|
A-------3----------3-------3---------------------------------|
E--------------------------------3---------------------------|

    B7/D#                    E
E------------2------------------------0-----------------------|
B---0----0--------0--------0------0----------------0---------|
G---0------------------0----0h1-----------------2h4-----------|
D-------1------------1------------2------2--------------------|
A---2----------------------------------------------------------|
E----------------------------0---------------------------------|


Chorus:
    Em              F#/D       G           D(/F#)
E--------------------------------------------------------------|
B------------------------0-1---0-------------3--3-------------|
G---0--------0--------2--------2-0----------2--2-------------|
D---2----2h4-------0---------------2-----0-------0----------|
A--------------------------------------------------------------|
E---0--0-----------2---------3---------(2)-----------------|

    Em          F#/D       G          D
E-----------------------------------------------------------|
B--------------------0-1---0-----3---3------3-------------|
G---0----------0-2--------0-----0---2----2---------------|
D------0-2-4--------------------------0--0-----------------|
A-----------------------------------------------------------|
E---0----------2---------3--3----------------------------|

       Em         F#/D          G             D
E------0-------------------------------------------------------|
B-----------3-1---0-------0h1-0------------------------------|
G---4-----0---------2---------------2-0-----2h4-2-------------|
D-----------------------0--------------------0----------------|
A----------------------------------------------------5-3--------|
E------0---------2------------3--3---------------------------|

    D/B                     Cmaj7
E----------------------------------------------|
B---------------------------------0-----------|
G-------0h2--0h2-0-------------0-------------|
D-----0------------0---------2---------------|
A---2----------------2-----3-----------------|
E----------------------------------------------|


The song is just these parts played twice in the same order.



And thats it! Please rate, comment and correct me!

Cheers...





Comments


Popular Fall Out Boy tabs & chords
Dead On Arrival 3 Bass Tabs
Beat It 1 Chords
Americas Suitehearts 2 Tabs
Beat It 7 Tabs
More Than I Can Take Tabs
Pretty In Punk 1 Tabs
Start Today 1 Tabs
What A Catch Donnie Tabs
Xo 1 Tabs
Dont You Know Who I Think I Am Ukulele


Song lyrics



↑ Back to top | Tablatures and chords are parodies/interpretations of the original songs. You may use it for private study, scholarship, research or language learning purposes only
© 2014 AZChords.com Contact us | Privacy policy | DMCA | Add/correct tabs | Request tabs | Top 50 tabs