» » »

Golden Tabs (ver.2)

Artists:  A B C D E F G H I J K L M N O P Q R S T U V W X Y Z # 

Golden Tabs (ver.2)

Fall Out Boy
Rating:
0/5 (0 votes)

Hard to play? Try these video lessons and learn fast.
                

. = Palm Mute

The album version of this song does not contain any guitar
however Fall Out Boy do use guitar's in their live versions
of the song.




Standard Tuning (EADGBE)


Intro (Clean)

Guitar 1
  . . .   . . . . . . . . . . . . . . . .
E-----------------------------------------|
B-----------------------------------------|    
G-5-5-5-5-5-5-5-5-5-5-5-8-8-8\3-3-3/5-5-5-|    
D-5-5-5-5-5-5-5-5-5-5-5-8-8-8\4-4-4/5-5-5-|
A-3-3-3-3-3-3-3-3-3-3-3-6-6-6\1-1-1/3-3-3-|
E-----------------------------------------|
  . . .   . . . . . . . . . . . . . . . .

  . . . . . . . . . . . . . . . . . .
E-------------------------------------------------|
B-------------------------------------------------|    
G-5-5-5-5-5-5-5-5-5-5-5-5-5-5-5-5-5-5-5-5-5-5-5-5-|    
D-5-5-5-5-5-5-5-5-5-5-5-5-5-5-5-5-5-5-5-5-6-6-6-6-|
A-3-3-3-3-3-3-3-3-3-3-3-3-3-3-3-3-3-3-3-3-3-3-3-3-|
E-------------------------------------------------|
  . . . . . . . . . . . . . . . . . .


Chorus Riff  (Distrotion)

E-------------------------------|   
B-------------------------------|   x4
G----------------------8--8-8-0-|    
D-3--3-3-5--5-5-6--6-6-8--8-8-0-|
A-3--3-3-6--6-6-4--4-4-6--6-6-0-|
E-1--1-1-3--3-3-4--4-4----------|


Verse (Clean)

E--------------------------------------------|
B--------------------------------------------|    
G-5---------3--------5--------------3-3-5-55-|    
D-5--(x40)--4--(x8)--5--(x8)--5-5-5x4-4-5-55-|
A-3---------1--------3--------6-6-6x1-1-3-33-|
E-----------------------------3-3-3x---------|

E-----------------------------|
B-----------------------------|    
G-5---------3-----------------|    
D-5--(x8)---4--(x8)--3--------|
A-3---------1--------3--(x16)-|
E--------------------1--------|  

E---------------------|          |----------|
B---------------------|    x3    |----------|
G-5---------3---------|          |----------|
D-5--(x8)---4--(x8)---|          |-3--------| > Gradually build up
A-3---------1---------|          |-3--(x16)-|
E---------------------|          |-1--------|


<>


Post Chorus (Clean)

E----------|
B----------|    
G-5--------|    
D-5--(x16)-|
A-3--------|
E----------|


<>


<>


Outro (Distortion)

E-----------------------------------------|
B----------6-6-6666--------------6-6-6666-|    
G-5-5-5555-5-5-5555-6-5-5-5-5555-5-5-5555-|    
D-5-5-5555-3-3-3333-----5-5-5555-3-3-3333-|
A-3-3-3333--------------3-3-3333----------|
E-----------------------------------------|
            
Hard to play? Try these video lessons and learn fast. | Correct




comments powered by Disqus
↑ Back to top | Tablatures and chords are parodies/interpretations of the original songs. You may use it for private study, scholarship, research or language learning purposes only