» » »

Fall Out Boy, Carpal Tunnel Of Love Tabs (ver.3)

Artists:  A B C D E F G H I J K L M N O P Q R S T U V W X Y Z # 

Carpal Tunnel Of Love Tabs (ver.3)

Fall Out Boy Tabs
Rating:
0/5 (0 votes)
Carpal Tunnel Of Love lessons Tabs too difficult? Try these video lessons and learn fast
                (2)
Track: Carpal Tunnel of Love

My first tab so it may not be perfect.  It sounds right when you play along with the song.


Intro Guitar 1
e|-------------------------------------------------------------------------|
B|-------------------------------------------------------------------------|
G|-------------------------------------------------------------------------|
D|-xx-12-12-x-12-12-8--12-xx-12-88--xx-12-12-x-12-12-8--12-xx-12-88--------|
A|-xx-12-12-x-12-12-8--12-xx-12-88--xx-12-12-x-12-12-8--12-xx-12-88--------|
D|-xx-12-12-x-12-12-8--12-xx-12-88--xx-12-12-x-12-12-8--12-xx-12-88--------|


**************************************************************************
**************************************************************************

[Verse 1: "We take sour sips..."]

Guitar 1
e|-------------------------------------------------------------------------|
B|-------------------------------------------------------------------------|
G|-------------------------------------------------------------------------|
D|-xx-12-12-x-12-12-7--12-xx-12-77--xx-12-12-x-12-12-8--12-xx-12-88--------|
A|-xx-12-12-x-12-12-7--12-xx-12-77--xx-12-12-x-12-12-8--12-xx-12-88--------|
D|-xx-12-12-x-12-12-7--12-xx-12-77--xx-12-12-x-12-12-8--12-xx-12-88--------|x4

["Stop by this disaster town..."]

Guitar 1
e|-------------------------------------------------------------------------|
B|-------------------------------------------------------------------------|
G|-------------------------------------------------------------------------|
D|-xx-12-12-x-12-12-7--12-xx-12-77--xx-12-12-x-12-12-8--12-xx-12-88--------|
A|-xx-12-12-x-12-12-7--12-xx-12-77--xx-12-12-x-12-12-8--12-xx-12-88--------|
D|-xx-12-12-x-12-12-7--12-xx-12-77--xx-12-12-x-12-12-8--12-xx-12-88--------|x4

Guitar 2
e|-------------------------------------------------------------------------|
B|-------------------------------------------------------------------------|
G|-------------------------------------------------------------------------|
D|-12-12--7-88--7-55--7-88--88-10(10)-00--7-88--7-55--7-88-88888-----------|
A|-12-12--7-88--7-55--7-88--88-10(10)-00--7-88--7-55--7-88-88888-----------|
D|-12-12--7-88--7-55--7-88--88-10(10)-00--7-88--7-55--7-88-88888-----------|


**************************************************************************
**************************************************************************

[Pre-Chorus: "And we might have started..."]

Guitar 1
e|-------------------------------------------------------------------------|
B|-------------------------------------------------------------------------|
G|-------------------10-10--10-10--10-10--10-10----------------------------|
D|-------------------10-10--10-10--10-10--10-10----------------------------|
A|-------------------8--8---8--8---8--8---8--8-----------------------------|
D|-------------------------------------------------------------------------|

Guitar 2
e|-------------------------------------------------------------------------|
B|-------------------------------------------------------------------------|
G|-------------------------------------------------------------------------|
D|-8888888877777777--00-00-33-33-------------------------------------------|
A|-8888888877777777--00-00-33-33-------------------------------------------|
D|-8888888877777777--00-00-33-33-------------------------------------------|


["We're throwing the stones.."]

Guitar 1
e|-------------------------------------------------------------------------|
B|-------------------------------------------------------------------------|
G|-------------------10-10--10-10--10(10)10(10)9999------------------------|
D|-------------------10-10--10-10--10(10)10(10)9999------------------------|
A|-------------------8--8---8--8---8--8--8--8--7777------------------------|
D|-------------------------------------------------------------------------|

Guitar 2
e|-------------------------------------------------------------------------|
B|-------------------------------------------------------------------------|
G|-------------------------------------------------------------------------|
D|-8888888877777777--55-55-33332222----------------------------------------|
A|-8888888877777777--55-55-33332222----------------------------------------|
D|-8888888877777777--55-55-33332222----------------------------------------|


**************************************************************************
**************************************************************************

[Chorus: "Whoa ah oh, we're so miserable..."]

Both Guitars
e|-------------------------------------------------------------------------|
B|-------------------------------------------------------------------------|
G|-------------------------------------------------------------------------|
D|-12(12)12(12)12(12)12(12)-33333333-88888888-5555-7710(10)----------------|
A|-12(12)12(12)12(12)12(12)-33333333-88888888-5555-7710(10)----------------|
D|-12(12)12(12)12(12)12(12)-33333333-88888888-5555-7710(10)----------------|

Both Guitars
e|-------------------------------------------------------------------------|
B|-------------------------------------------------------------------------|
G|-------------------------------------------------------------------------|
D|-12(12)12(12)12(12)12(12)-33333333-88888888-5555-7733--------------------|
A|-12(12)12(12)12(12)12(12)-33333333-88888888-5555-7733--------------------|
D|-12(12)12(12)12(12)12(12)-33333333-88888888-5555-7733--------------------|


**************************************************************************
**************************************************************************

Guitar 1
e|-------------------------------------------------------------------------|
B|-------------------------------------------------------------------------|
G|-------------------------------------------------------------------------|
D|-xx-12-12-x-12-12-8--12-xx-12-88--xx-12-12-x-12-12-8--12-xx-12-88--------|
A|-xx-12-12-x-12-12-8--12-xx-12-88--xx-12-12-x-12-12-8--12-xx-12-88--------|
D|-xx-12-12-x-12-12-8--12-xx-12-88--xx-12-12-x-12-12-8--12-xx-12-88--------|

[Verse 2: "We keep the beat..."]

Guitar 1
e|-------------------------------------------------------------------------|
B|-------------------------------------------------------------------------|
G|-------------------------------------------------------------------------|
D|-xx-12-12-x-12-12-7--12-xx-12-77--xx-12-12-x-12-12-8--12-xx-12-88--------|
A|-xx-12-12-x-12-12-7--12-xx-12-77--xx-12-12-x-12-12-8--12-xx-12-88--------|
D|-xx-12-12-x-12-12-7--12-xx-12-77--xx-12-12-x-12-12-8--12-xx-12-88--------|x4

["Slept through the weekend..."]

Guitar 1
e|-------------------------------------------------------------------------|
B|-------------------------------------------------------------------------|
G|-------------------------------------------------------------------------|
D|-xx-12-12-x-12-12-7--12-xx-12-77--xx-12-12-x-12-12-8--12-xx-12-88--------|
A|-xx-12-12-x-12-12-7--12-xx-12-77--xx-12-12-x-12-12-8--12-xx-12-88--------|
D|-xx-12-12-x-12-12-7--12-xx-12-77--xx-12-12-x-12-12-8--12-xx-12-88--------|x4

Guitar 2
e|-------------------------------------------------------------------------|
B|-------------------------------------------------------------------------|
G|-------------------------------------------------------------------------|
D|-12-12--7-88--7-55--7-88--88-10(10)-00--7-88--7-55--7-88-88888-----------|
A|-12-12--7-88--7-55--7-88--88-10(10)-00--7-88--7-55--7-88-88888-----------|
D|-12-12--7-88--7-55--7-88--88-10(10)-00--7-88--7-55--7-88-88888-----------|


**************************************************************************
**************************************************************************

[Pre-Chorus: "We might of said good byes..."]

Guitar 1
e|-------------------------------------------------------------------------|
B|-------------------------------------------------------------------------|
G|-------------------10-10--10-10--10-10--10-10----------------------------|
D|-------------------10-10--10-10--10-10--10-10----------------------------|
A|-------------------8--8---8--8---8--8---8--8-----------------------------|
D|-------------------------------------------------------------------------|

Guitar 2
e|-------------------------------------------------------------------------|
B|-------------------------------------------------------------------------|
G|-------------------------------------------------------------------------|
D|-8888888877777777--00-00-33-33-------------------------------------------|
A|-8888888877777777--00-00-33-33-------------------------------------------|
D|-8888888877777777--00-00-33-33-------------------------------------------|


["Our beliefs of kissing beats..."]

Guitar 2
e|-------------------------------------------------------------------------|
B|-------------------------------------------------------------------------|
G|-------------------------------------------------------------------------|
D|-8888888877777777--5\0---------------------------------------------------|
A|-8888888877777777--5\0---------------------------------------------------|
D|-8888888877777777--5\0---------------------------------------------------|


**************************************************************************
**************************************************************************


[Chorus: "Whoa ah oh, we're so miserable..."]

Both Guitars
e|-------------------------------------------------------------------------|
B|-------------------------------------------------------------------------|
G|-------------------------------------------------------------------------|
D|-12(12)12(12)12(12)12(12)-33333333-88888888-5555-7710(10)----------------|
A|-12(12)12(12)12(12)12(12)-33333333-88888888-5555-7710(10)----------------|
D|-12(12)12(12)12(12)12(12)-33333333-88888888-5555-7710(10)----------------|x3

Both Guitars
e|-------------------------------------------------------------------------|
B|-------------------------------------------------------------------------|
G|-------------------------------------------------------------------------|
D|-12(12)12(12)12(12)12(12)-33333333-88888888-5555-33220-------------------|
A|-12(12)12(12)12(12)12(12)-33333333-88888888-5555-33220-------------------|
D|-12(12)12(12)12(12)12(12)-33333333-88888888-5555-33220-------------------|


**************************************************************************
**************************************************************************

[Bridge: "when the pearls in our shells...."]

Guitar 2
e|-------------------------------------------------------------------------|
B|-------------------------------------------------------------------------|
G|-------------------------------------------------------------------------|
D|-0-----------------------------------------------------------------------|
A|-0-----------------------------------------------------------------------|
D|-0-----------------------------------------------------------------------|

["This is what you get..."]

Guitar 1
e|-------------------------------------------------------------------------|
B|-------------------------------------------------------------------------|
G|-10-10--10-10--10-10--10-10--10(10)77------------------------------------|
D|-10-10--10-10--10-10--10-10--10(10)99------------------------------------|
A|-8--8---8--8---8--8---8--8---8--8--99------------------------------------|
D|-------------------------------------------------------------------------|x2

Guitar 2
e|-------------------------------------------------------------------------|
B|-------------------------------------------------------------------------|
G|-------------------------------------------------------------------------|
D|-----------------------------------10------------------------------------|
A|-----------------------------------10------------------------------------|
D|-----------------------------------10------------------------------------|x2



Guitar 1
e|-------------------------------------------------------------------------|
B|-------------------------------------------------------------------------|
G|-10-10--10-10--12-12--12-12--12(12)12(12)--14-14--14-14--15-15--15-15----|
D|-10-10--10-10--12-12--12-12--12(12)12(12)--14-14--14-14--15-15--15-15----|
A|-8--8---8--8---10-10--10-10--10(10)10(10)--12-12--12-12--13-13--13-13----|
D|-------------------------------------------------------------------------|

e|------------------|
B|------------------|
G|-15(15)15(15)-----|
D|-15(15)15(15)-----|
A|-13(13)13(13)-----|
D|------------------|x2


Guitar 2
e|-------------------------------------------------------------------------|
B|-------------------------------------------------------------------------|
G|-------------------------------------------------------------------------|
D|-33-33-55-55-5555--77-77-88-88-8888--33-33-55-55-5555--77-77-88-88-88----|
A|-33-33-55-55-5555--77-77-88-88-8888--33-33-55-55-5555--77-77-88-88-88----|
D|-33-33-55-55-5555--77-77-88-88-8888--33-33-55-55-5555--77-77-88-88-88----|x2


**************************************************************************
**************************************************************************


[Ending Chorus: "Whoa ah oh, we're so miserable..."]

Both Guitars
e|-------------------------------------------------------------------------|
B|-------------------------------------------------------------------------|
G|-------------------------------------------------------------------------|
D|-12(12)12(12)12(12)12(12)-33333333-88888888-5555-7710(10)----------------|
A|-12(12)12(12)12(12)12(12)-33333333-88888888-5555-7710(10)----------------|
D|-12(12)12(12)12(12)12(12)-33333333-88888888-5555-7710(10)----------------|x2

["Oooo oooo HOOO!"]
e|-------------------------------------------------------------------------|
B|-------------------------------------------------------------------------|
G|-------------------------------------------------------------------------|
D|-12(12)12(12)------------------------------------------------------------|
A|-12(12)12(12)------------------------------------------------------------|
D|-12(12)12(12)------------------------------------------------------------|
PM xxxxxxxxxxxx

Both Guitars
e|-------------------------------------------------------------------------|
B|-------------------------------------------------------------------------|
G|-------------------------------------------------------------------------|
D|-12(12)12(12)12(12)12(12)-33333333-88888888-5555-7710(10)----------------|
A|-12(12)12(12)12(12)12(12)-33333333-88888888-5555-7710(10)----------------|
D|-12(12)12(12)12(12)12(12)-33333333-88888888-5555-7710(10)----------------|

Both Guitars
e|-------------------------------------------------------------------------|
B|-------------------------------------------------------------------------|
G|-------------------------------------------------------------------------|
D|-12(12)12(12)12(12)12(12)-33333333-88888888-5555-33220-------------------|
A|-12(12)12(12)12(12)12(12)-33333333-88888888-5555-33220-------------------|
D|-12(12)12(12)12(12)12(12)-33333333-88888888-5555-33220-------------------|


| /  slide up
| \  slide down
| h  hammer-on
| p  pull-off
| ~  vibrato
| +  harmonic
| x  Mute note
            
Submit corrections

comments powered by Disqus
↑ Back to top | Fall Out Boy Tabs for Carpal Tunnel Of Love. Lyrics for acoustic guitar and electric guitar. Tablatures and chords are parodies/interpretations of the original songs. You may use it for private study, scholarship, research or language learning purposes only