>
 >
Carpal Tunnel Of Love 1

Carpal Tunnel Of Love 1 Guitar Tabs

Fall Out Boy - Carpal Tunnel Of Love 1 chords, tabs, tablatures, lyrics

Guitar lessons | Add/correct | Request | Top 50 tabs Artists:  A B C D E F G H I J K L M N O P Q R S T U V W X Y Z 0-9

Carpal Tunnel Of Love 1 Guitar Tabs – Fall Out Boy

CD, Sheet music, Poster

Do you like Carpal Tunnel Of Love 1? Share with your friends now
Tabs
                Fall Out Boy- Carpol Tunnel of Love


Dropped D Tunning

Guitar 1

e|-------------------------------------------------------------------------|
B|-------------------------------------------------------------------------|
G|--xx-7-7-xx-7-7-xx---xx-7-xx-7-7-------7-7-xx-7-7-xx---xx-7-xx-7-7-------|
D|--xx-x-x-xx-x-x-xx-8-xx-x-xx-x-x-8-8\7-x-x-xx-x-x-xx-8-xx-x-xx-x-x-8-8\7-|
A|--xx-5-5-xx-5-5-xx-8-xx-5-xx-5-5-8-8\7-5-5-xx-5-5-xx-8-xx-5-xx-5-5-8-8\7-|
D|-------------------8-------------8-8\7---------------8-------------8-8\7-|

                      (Play until other guitar comes in)

e|--------------------|
B|--------------------|
G|--7-7-xx-7-7-xx-7-xx|   4 times
D|--x-x-xx-x-x-xx-x-xx|
A|--5-5-xx-5-5-xx-5-xx|
D|--------------------|

Guitar 2

e|-------------------------------------------------------------|
B|-------------------------------------------------------------|
G|-------------------------------------------------------------|
D|--00--7-88--7-55--7-88--88-1010-1212--7-88--7-55--7-88--8810-|
A|--00--7-88--7-55--7-88--88-1010-1212--7-88--7-55--7-88--8810-|
D|--00--7-88--7-55--7-88--88-1010-1212--7-88--7-55--7-88--8810-|

e|------------------------------------|
B|------------------------------------|
G|------------------------------------|
D|--88888888-77777777-000-000-033-377-|
A|--88888888-77777777-000-000-033-377-|
D|--88888888-77777777-000-000-033-377-|

e|-----------------------------------|
B|-----------------------------------|
G|-----------------------------------|
D|--88888888-7777777-555-55533332222-|
A|--88888888-7777777-555-55533333333-|
D|--88888888-7777777-555-55533332222-|

Guitar 1

e|---------------------------------------------------|
B|---------------------------------------------------|
G|--1010101010101010-99999999-101010-101010-999-9910-|
D|--x-x-x-x-x-x-x-x--xxxxxxxx-x-x-x--x-x-x--xxx-xxx--|
A|--8-8-8-8-8-8-8-8--77777777-8-8-8--8-8-8--777-778--|
D|---------------------------------------------------|

e|-----------------------------------------------------------|
B|-----------------------------------------------------------|
G|--1010101010101010-99999999-101010-101010-1212121210101010-|
D|--x-x-x-x-x-x-x-x--xxxxxxxx-x-x-x--x-x-x--x-x-x-x-x-x-x-x--|
A|--8-8-8-8-8-8-8-8--77777777-8-8-8--8-8-8--1010101010101010-|
D|-----------------------------------------------------------|

Guitar 2 Chorus

e|------------------------------------|
B|------------------------------------|
G|------------------------------------|
D|--00000000333333338888888855557788--|
A|--00000000333333338888888855557788--|
D|--00000000333333338888888855557788--|

e|-------------------------------------------------------------------|
B|-------------------------------------------------------------------|
G|-7777777710101010101010107777777712121212121212121010101010101010--|
D|-xxxxxxxxx-x-x-x-x-x-x-x-xxxxxxxxx-x-x-x-x-x-x-x-x-x-x-x-x-x-x-x---|
A|-555555558-8-8-8-8-8-8-8-5555555510101010101010108-8-8-8-8-8-8-8---|
D|-------------------------------------------------------------------|

               Each times 2

Repeat intro

e|-------------------------------------------------------------|
B|-------------------------------------------------------------|
G|-------------------------------------------------------------|
D|--00--7-88--7-55--7-88--88-1010-1212--7-88--7-55--7-88--8810-|
A|--00--7-88--7-55--7-88--88-1010-1212--7-88--7-55--7-88--8810-|
D|--00--7-88--7-55--7-88--88-1010-1212--7-88--7-55--7-88--8810-|

e|------------------------------------|
B|------------------------------------|
G|------------------------------------|
D|--88888888-77777777-000-000-033-377-|
A|--88888888-77777777-000-000-033-377-|
D|--88888888-77777777-000-000-033-377-|

e|-----------------------|
B|-----------------------|
G|-----------------------|
D|--88888888-77777777-5\-|
A|--88888888-77777777-5\-|
D|--88888888-77777777-5\-|

e|--------------------|
B|--------------------|
G|--7-7-xx-7-7-xx-7-xx|   4 times
D|--x-x-xx-x-x-xx-x-xx|
A|--5-5-xx-5-5-xx-5-xx|
D|--------------------|

e|---------------------------------------------------|
B|---------------------------------------------------|
G|--1010101010101010-99999999-101010-101010-999-9910-|
D|--x-x-x-x-x-x-x-x--xxxxxxxx-x-x-x--x-x-x--xxx-xxx--|
A|--8-8-8-8-8-8-8-8--77777777-8-8-8--8-8-8--777-778--|
D|---------------------------------------------------|

e|--------------------------------|
B|--------------------------------|
G|--1010101010101010-99999999-10\-|
D|--x-x-x-x-x-x-x-x--xxxxxxxx-x---|
A|--8-8-8-8-8-8-8-8--77777777-8-\-|
D|--------------------------------|

Chorus 1 Time

Play the last measure like this though!

e|---------------|
B|---------------|
G|---------------|
D|--555555557733-|
A|--555555557733-|
D|--555555557733-|

e|----------------|
B|----------------|
G|----------------|
D|--0~-----0~-----|
A|--0~-----0~-----|
D|--0~-----0~-----|

Guitar 2

e|--------------------|
B|--------------------|
G|--77-77-77-77-77-5~-|
D|--77-77-77-77-77-5~-|
A|--55-55-55-55-55-3~-|  x2
D|--------------------|

e|-----------------------------------------------|
B|-----------------------------------------------|
G|--77-77-79-99-9999-1010101010-12-1212-12121212-|
D|--77-77-79-99-9999-1010101010-12-1212-12121212-| x2
A|--55-55-57-77-7777-8-8-8-8-8--10-1010-10101010-|
D|-----------------------------------------------|

2nd chorus and end on.

e|-----------------------------------------------|
B|-----------------------------------------------|
G|-----------------------------------------------|
D|--0~-------------------------------------------|
A|--0~-------------------------------------------|
D|--0~-------------------------------------------|

please leave a comment or rate. if u have any suggestions post them as a comment and if 
think its right i will update ASAP

enjoy!





Comments


Popular Fall Out Boy tabs & chords
Champagne For My Real Friends Real Pain For My Sham Friends Bass Tabs
Ive Got All This Ringing In My Ears And None On My Fingers 2 Bass Tabs
Save Rock And Roll Bass Tabs
This Aint A Scene Its An Arms Race Bass Tabs
The Phoenix 4 Chords
What A Catch Donnie 6 Chords
From Plastic To Skin Tabs
Growing Up 1 Tabs
Pavlove 2 Tabs
The Shipped Gold Standard Ukulele


Song lyrics



↑ Back to top | Tablatures and chords are parodies/interpretations of the original songs. You may use it for private study, scholarship, research or language learning purposes only
© 2014 AZChords.com Contact us | Privacy policy | DMCA | Add/correct tabs | Request tabs | Top 50 tabs