>
 >
Bang The Doldrums 1

Bang The Doldrums 1 Guitar Tabs

Fall Out Boy - Bang The Doldrums 1 chords, tabs, tablatures, lyrics

Guitar lessons | Add/correct | Request | Top 50 tabs Artists:  A B C D E F G H I J K L M N O P Q R S T U V W X Y Z 0-9

Bang The Doldrums 1 Guitar Tabs – Fall Out Boy

CD, Sheet music, Poster

Do you like Bang The Doldrums 1? Share with your friends now
Bass TabsBass Tabs v2Bass Tabs v3ChordsChords v2TabsTabs v2Tabs v3Ukulele
Man, I was bored silly. I realized that there wasn't a decently good tab for this song 
I decided to make one. Enjoy!

Intro

E|-x--x--x-xx-x--|
B|-x--x--x-xx-x--|
G|-x--x--x-xx-x--|
D|-x--x--x-xx-x--|
A|-x--x--x-xx-x--|
E|-x--x--x-xx-x--|

Gtr 1:
E|--------------------------------|----------------------------------|
B|--------------------------------|----------------------------------|
G|10--/13--\6--/--88--/--10---10--|10--/13--\6--/--88--/--1313---10--|
D|-x--/-x--\x--/--xx--/--xx----x--|-x--/-x--\x--/--xx--/---x-x----x--|
A|-8--/11--\4--/--66--/--88----8--|-8--/11--\4--/--66--/--1111----8--|
E|--------------------------------|----------------------------------|
                                                                      x2
Gtr 2:
E|--------------------------------|----------------------------------|
B|--------------------------------|----------------------------------|
G|----------------------66--------|----------------------66----------|
D|-8--\6--\4--/--66-----66----4---|-8--\6--\4--/--66-----66----4-----|
A|-8--\6--\4--/--66-----44----4---|-8--\6--\4--/--66-----44----4-----|
E|-6--\4--\2--/--44-----------6---|-6--\4--\2--/--44-----------6-----|

Verse

E|--------------------------------|----------------------------------|
B|--------------------------------|----------------------------------|
G|--------------------------------|----------------------------------|
D|-11-11-11-------10-10-10--------|-11-11-11-------10-10-10----------|
A|----------9-9-9----------9-9-9--|----------9-9-9----------9-9-9----|
E|--------------------------------|----------------------------------|
PM ..    .. . . . ..    .. . . .          .. . . . ..    .. . . .

E|--------------------------------|----------------------------------|
B|--------------------------------|----------------------------------|
G|--------------------------------|----------------------------------|
D|-11-11-11-------10-10-10--------|-11-11-11-------10-10-10-8--------|
A|----------9-9-9----------9-9-9--|----------9-9-9----------8--------|
E|--------------------------------|-------------------------6--------|
PM       .. . . . ..    .. . . .    ..    .. . . . ..    ..

E|--------------------------------|----------------------------------|
B|--------------------------------|----------------------------------|
G|--------------------------------|----------------------------------|
D|-11-11-11-------10-10-10--------|-11-11-11-------10-10-10----------|
A|----------9-9-9----------9-9-9--|----------9-9-9----------9-9-9----|
E|--------------------------------|----------------------------------|
PM       .. . . . ..    .. . . .          .. . . . ..    .. . . .

E|--------------------------------|----------------------------------|
B|--------------------------------|----------------------------------|
G|--------------------------------|----------------------------------|
D|-11-11-11-------10-10-10--------|-11-11-11-------10-10-10----------|
A|----------9-9-9----------9-9-9--|----------9-9-9----------9-9-9----|
E|--------------------------------|----------------------------------|
PM ..    .. . . . ..    .. . . .    ..    .. . . . ..    .. . . .

E|-------------------------------------------------------------------|
B|--------------------------------------(11's)-----------------------|
G|-----------------------------------------v-------------------------|
D|-------------------------------------111111111111111111111111------|
A|-6-6-668-8-889-9-999-9-996-6-668-8-88------------------------------|
E|-------------------------------------------------------------------|

Chorus

Gtr 1:
E|-------------------------------------------------------------------|
B|-------------------------------------------------------------------|
G|-666666666666--------------666666666666----------------------------|
D|-666666666666-666666666666-666666666666-8--\6--\4----333333333333--|
A|-444444444444-666666666666-444444444444-8--\6--\4----333333333333--|
E|--------------444444444444--------------6--\4--\2----111111111111--|

E|-----------------------------------------|
B|-----------------------------------------|
G|-----------------------------------------|
D|-4--/6--/8----444444444444-666666666666--|
A|-4--/6--/8----444444444444-666666666666--|
E|-2--/4--/6----222222222222-444444444444--|

Gtr 2:
E|---------------|
B|---------------|
G|-666666666666--|
D|-xxxxxxxxxxxx--| (Played Throughout Chorus)
A|-444444444444--|
E|---------------|

Post-Chorus (Same As Intro)
Repeat Verse
Repeat Chorus
Repeat Post-Chorus

Bridge

E|-------------------------------------------------------------------|
B|-------------------------------------------------------------------|
G|-x-x---------------------------------------------------------------|
D|-x-x-8~------------------------------------------------------------|
A|-x-x-8~------------------------------------------------------------|
E|-x-x-6~------------------------------------------------------------|
(Might Be Some Muted Notes)

Gtr 1:
E|--------------------------------------------------------------------|
B|--------------------------------------------------------------------|
G|--------------------------------------------------------------------|
D|--------------------------------------------------------------------|
A|-8888888888h98-8888888888h98-8888888888h98-8888888888h98------------|
E|--------------------------------------------------------------------|

Gtr 2:
E|-----------------------------|
B|-----------------------------|
G|-----------------------------|
D|-8\--------------------------|
A|-8\--------------------------|
E|-6\--------------------------|

Gtr 1:
E|---------------------------------------------------------------------|
B|---------------------------------------------------------------------|
G|-666666666666-/888888888888-/101010-/131313131313-\666666-/101010----|
D|-xxxxxxxxxxxx-/xxxxxxxxxxxx-/xxxxxx-/-x-x-x-x-x-x-\xxxxxx-/xxxxxx----|
A|-444444444444-/666666666666-/888888-/111111111111-\444444-/888888----|
E|---------------------------------------------------------------------|

Gtr 2:
E|---------------------------------------------------------------------|
B|---------------------------------------------------------------------|
G|---------------------------------------------------------------------|
D|-444444444444-666666666666-888888-666666-444444-666666---------------|
A|-444444444444-666666666666-888888-666666-444444-666666---------------|
E|-222222222222-444444444444-666666-444444-222222-444444---------------|

Gtr 1: (Continued)
E|---------------------------------------------------------------------|
B|---------------------------------------------------------------------|
G|-111111111111-111111111111-6--/8-/10--/13-\10--\8-/10--\8------------|
D|-xxxxxxxxxxxx-xxxxxxxxxxxx-x--/x--/x--/-x--\x--\x--/x--\x------------|
A|-999999999999-999999999999-4--/6--/8--/11--\8--\6--/8--\6------------|
E|---------------------------------------------------------------------|

Gtr 2: (Continued)
E|---------------------------------------------------------------------|
B|---------------------------------------------------------------------|
G|---------------------------------------------------------------------|
D|-444444444444-666666666666-888888888888-888888-8--\6-----------------|
A|-444444444444-666666666666-888888888888-888888-8--\6-----------------|
E|-222222222222-444444444444-666666666666-666666-6--\4-----------------|

Gtr 1: (Continued)
E|---------------------------------------------------------------------|
B|---------------------------------------------------------------------|
G|-666666666666-/888888888888-/101010-/131313131313-\666666-/101010----|
D|-xxxxxxxxxxxx-/xxxxxxxxxxxx-/xxxxxx-/-x-x-x-x-x-x-\xxxxxx-/xxxxxx----|
A|-444444444444-/666666666666-/888888-/111111111111-\444444-/888888----|
E|---------------------------------------------------------------------|

Gtr 2: (Continued)
E|---------------------------------------------------------------------|
B|---------------------------------------------------------------------|
G|---------------------------------------------------------------------|
D|-444444444444-666666666666-888888-666666-444444-666666---------------|
A|-444444444444-666666666666-888888-666666-444444-666666---------------|
E|-222222222222-444444444444-666666-444444-222222-444444---------------|

Gtr 1: (Continued)
E|---------------------------------------------------------------------|
B|---------------------------------------------------------------------|
G|111111111111111111111111-131313131313131313131313--------------------|
D|-x-x-x-x-x-x-x-x-x-x-x-x--x-x-x-x-x-x-x-x-x-x-x-x--------------------|
A|-9-9-9-9-9-9-9-9-9-9-9-9-111111111111111111111111--------------------|
E|---------------------------------------------------------------------|

Gtr 2: (Continued)
E|-----------------------------------------------------|
B|-----------------------------------------------------|
G|-----------------------------------------------------|
D|-444444444444-666666666666---------------------------|
A|-444444444444-666666666666---------------------------|
E|-222222222222-444444444444---------------------------|

Final Chorus

Gtr 1:
E|--------------------------------------------------|
B|--------------------------------------------------|
G|-8------------------------6-----------------------|
D|-8------------------------6-----------\8--\6--\4--|
A|-6------------------------8-----------\8--\6--\4--|
E|--------------------------------------\6--\4--\2--|
(Not Sure About This Part, Figure Out The Strumming)

Gtr 2:
E|--------------------------------------------------|
B|--------------------------------------------------|
G|--------------------------------------------------|
D|-11~----------------------------------------------|
A|-11~----------------------------------------------|
E|--9~----------------------------------------------|

Gtr 1:
E|----------------------------------------------------|
B|----------------------------------------------------|
G|----------------------------------------------------|
D|-333333333333-4--6--8----444444444444-6-------------|
A|-333333333333-4--6--8----444444444444-6-------------|
E|-111111111111-2--4--6----222222222222-4-------------|

Gtr 2:
E|---------------|
B|---------------|
G|-666666666666--|
D|-xxxxxxxxxxxx--| (Played Throughout Chorus)
A|-444444444444--|
E|---------------|

Outro (Play Intro Riff)

Gtr 1:
E|------------------------------------------------------------------|
B|------------------------------------------------------------------|
G|1010-131313-666666-888888-1010101010-131313-666666-888888-101010--|
D|-xxx--x-x-x-xxxxxx-xxxxxx-xxxxxx-xxx--x-x-x-xxxxxx-xxxxxx-xxxxxx--|
A|-888-111111-444444-666666-888888-888-111111-444444-666666-888888--|
E|------------------------------------------------------------------|

E|------------------------------------------------------------------|
B|------------------------------------------------------------------|
G|1010-131313-666666-888888-10101010--/13--\6--/--88--/--10---------|
D|-xxx--x-x-x-xxxxxx-xxxxxx-xxxxxx-x--/-x--\x--/--xx--/--xx---------|
A|-888-111111-444444-666666-888888-8--/11--\4--/--66--/--88---------|
E|------------------------------------------------------------------|

Gtr 2:
E|------------------------------------------------------------------|
B|------------------------------------------------------------------|
G|-666666666666-666666666666-666666666666-666666666666--------------|
D|-xxxxxxxxxxxx-xxxxxxxxxxxx-xxxxxxxxxxxx-xxxxxxxxxxxx--------------|
A|-444444444444-444444444444-444444444444-444444444444--------------|
E|------------------------------------------------------------------|

E|----------------------------------------------------|
B|----------------------------------------------------|
G|-666666666666-666666666666---------------------66\--|
D|-xxxxxxxxxxxx-xxxxxxxxxxxx-8--\6--\4--/--66----66\--|
A|-444444444444-444444444444-8--\6--\4--/--66----44\--|
E|---------------------------6--\4--\2--/--44---------|

Please vote and leave a comment. Let me know if you find any errors!





Comments


Popular Fall Out Boy tabs & chords
Dont You Know Who I Think I Am Bass Tabs
Get Busy Living Or Get Busy Dying Bass Tabs
Americas Suitehearts 3 Tabs
More Than I Can Take 1 Tabs
My Heart Is The Worst Kind Of Weapon Tabs
My Songs Know What You Did In The Dark Light Em Up 5 Tabs
Roxanne Tabs
Take Over The Breaks Over 4 Tabs
Xo Tabs
Death Valley Ukulele


Song lyrics



↑ Back to top | Tablatures and chords are parodies/interpretations of the original songs. You may use it for private study, scholarship, research or language learning purposes only
© 2014 AZChords.com Contact us | Privacy policy | DMCA | Add/correct tabs | Request tabs | Top 50 tabs