>
 >
Bang The Doldrums 2

Bang The Doldrums 2 Guitar Tabs

Fall Out Boy - Bang The Doldrums 2 chords, tabs, tablatures, lyrics

Guitar lessons | Add/correct | Request | Top 50 tabs Artists:  A B C D E F G H I J K L M N O P Q R S T U V W X Y Z 0-9

Bang The Doldrums 2 Guitar Tabs – Fall Out Boy

CD, Sheet music, Poster

Do you like Bang The Doldrums 2? Share with your friends now
Bass TabsBass Tabs v2Bass Tabs v3ChordsChords v2TabsTabs v2Tabs v3Ukulele


/ = Slide Up
\ = Slide Down
. = Palm Mute
x = Dead note (Mute)


Standard Tuning (EADGBE)


Intro

Guitar 1
E-----------|
B-----------|    
G-x-x-x-xxx-|    
D-x-x-x-xxx-|
A-x-x-x-xxx-|
E-----------|

E-------------------------------|        |---------------------|
B-------------------------------|   x3   |---------------------|
G-10-8-66-xx-888-xx-13-13-13-xx-|        |10-8-66-xx-888-xx-6\-|
D-x--x-xx-xx-xxx-xx-x--x--x--xx-|        |x--x-xx-xx-xxx-xx-x\-|
A-8--6-44-xx-666-xx-11-11-11-xx-|        |8--6-44-xx-666-xx-4\-|
E-------------------------------|        |---------------------|

Guitar 2
E-----------|
B-----------|    
G-----------|    
D-x-x-x-xxx-|
A-x-x-x-xxx-|
E-x-x-x-xxx-|

E-------------------------|        |---------------------|
B-------------------------|   x3   |---------------------|
G------------------666----|        |------------------6\-|
D-8-6-44-xx-666-xx-666-xx-|        |-8-6-44-xx-666-xx-6\-|
A-8-6-44-xx-666-xx-444-xx-|        |-8-6-44-xx-666-xx-4\-|
E-6-4-22-xx-444-xx-----xx-|        |-6-4-22-xx-444-xx----|


Verse


Guitar1
  .     .  . . . .    .  . . .              .     .  . . . . 
E------------------------------|          |------------------------------|
B------------------------------|    x3    |------------------------------|
G------------------------------|          |------------------------------|
D-11-11-11-------8-10-10-------|          |-11-11-11-------8-10-10-10--8-|
A----------9-9-9---------9-9-9-|          |----------9-9-9-------------8-|
E------------------------------|          |----------------------------6-|
  .     .  . . . .    .  . . .              .     .  . . . .

  .     .  . . . .    .  . . .
E------------------------------|
B------------------------------|    x4
G------------------------------|    
D-11-11-11-------8-10-10-------|
A----------9-9-9---------9-9-9-|
E------------------------------|
  .     .  . . . .    .  . . .

E-----------------------------------------------------------------|
B-----------------------------------------------------------------|  
G-----------------------------------------------------------------|    
D-8-8-888-8-8-8-10-10-1010-10-1010-10-1010-10-10-8-8-888-10-10 10-|
A-----------------------------------------------------------------|
E-----------------------------------------------------------------|

E---------------|
B---------------|  
G--------xxxxxx-|    
D-101010-xxxxxx-|
A--------xxxxxx-|
E---------------|

Guitar 2
  .  .  .  . . . . .  .  . . .              .  .  .  . . . . 
E------------------------------|          |------------------------------|
B------------------------------|    x3    |------------------------------|
G------------------------------|          |----------------------------8-|
D-11-11-11-------8-10-10-------|          |-11-11-11-------8-----------8-|
A----------9-9-9---------9-9-9-|          |----------9-9-9-------------6-|
E------------------------------|          |------------------------------|
  .  .  .  . . . . .  .  . . .              .  .  .  . . . . 

  .  .  .  . . . . .  .  . . .
E------------------------------|
B------------------------------|    x4
G------------------------------|    
D-11-11-11-------8-10-10-------|
A----------9-9-9---------9-9-9-|
E------------------------------|
  .  .  .  . . . . .  .  . . .


Chorus 1 Part 1

Guitar 1
E-------------------------------------------------------|
B-------------------------------------------------------|    
G-6-6-6-6-6-6-6-6-----------------6-6-6-6-6-6-6-6---6---|    
D-6-6-6-6-6-6-6-6-6-6-6-6-6-6-6-6-6-6-6-6-6-6-6-6-6-6-4-|
A-4-4-4-4-4-4-4-4-6-6-6-6-6-6-6-6-4-4-4-4-4-4-4-4-6-4-4-|
E-----------------4-4-4-4-4-4-4-4-----------------4---2-|

E-------------------------------------------------------|
B-------------------------------------------------------|    
G-6-6-6-6-6-6-6-6---6-----------------------------------|    
D-6-6-6-6-6-6-6-6-6-6-4-4-4-4-4-4-4-4-4-6-6-6-6-6-6-6-6-|
A-4-4-4-4-4-4-4-4-6-4-4-4-4-4-4-4-4-4-4-6-6-6-6-6-6-6-6-|
E-----------------4---2-2-2-2-2-2-2-2-2-4-4-4-4-4-4-4-4-|

Guitar 2
E----------|
B----------|    x6 
G-66666666-|    
D-xxxxxxxx-|
A-44444444-|
E----------|

Chrous 1 Part 2

Guitar 1
E-----------------------------|        |----------------------|
B-----------------------------|   x3   |----------------------|
G-8-13-6-xxx-88-xxx-13-13-xxx-|        |-8-13-6-xxx-88-xxx-6\-|
D-x-x--x-xxx-xx-xxx-x--x--xxx-|        |-x-x--x-xxx-xx-xxx-x\-|
A-6-11-4-xxx-66-xxx-11-11-xxx-|        |-6-11-4-xxx-66-xxx-4\-|
E-----------------------------|        |----------------------|

Guitar 2
E-------------------------|         |----------------------|
B-------------------------|    x3   |----------------------|
G---6----------xxx-66-xxx-|         |---6----------xxx-66\-|
D-6-6-4-xxx-66-xxx-66-xxx-|         |-6-6-4-xxx-66-xxx-66\-|
A-6-4-4-xxx-66-xxx-44-xxx-|         |-6-4-4-xxx-66-xxx-44\-|
E-4---2-xxx-44------------|         |-4---2-xxx-44---------|


<>


Bridge

Guitar 1 
           . .... . .... . .......... 
E-------------------------------------|
B-------------------------------------|     
G-------------------------------------|    
D-8-----------------------------------|
A-8-----------------------------------|
E-6--------6-6666-6-6666-6-6666666666-|
           . .... . .... . .......... 

       . .... . .... . .... . .... . .... . ....
E------------------------------------------------|
B------------------------------------------------|     
G------------------------------------------------|    
D-8\---------------------------------------------|
A-8\---------------------------------------------|
E-6\---6-6666-6-6666-6-6666-6-6666-6-6666-6-6666-|
       . .... . .... . .... . .... . .... . ....

Guitar 2
E----------------------------|
B----------------------------|   x4   
G-10-10-10-10-10-10-10101011-|    
D-x--x--x--x--x--x--x-x-x-x--|
A-8--8--8--8--8--8--8-8-8-9--|
E----------------------------|


Continued...

Guitar 1
E-----------------------------------------------------|
B-----------------------------------------------------|     
G-66666666-88888888-11-11-11-11-13-13-13-13-6666-10---|    
D-xxxxxxxx-xxxxxxxx-x--x--x--x--x--x--x--x--xxxx-x----|
A-44444444-66666666-9--9--9--9--11-11-11-11-4444-8----|
E-----------------------------------------------------|

E------------------------------------------------------------------|
B------------------------------------------------------------------|     
G-11-11-11-11-11-11-11-11-11-11-11-11-11-11-11-11-6-8-10-12-6--6-5-|    
D-x--x--x--x--x--x--x--x--x--x--x--x--x--x--x--x--x-x-x--x--x--x-x-|
A-9--9--9--9--9--9--9--9--9--9--9--9--9--9--9--9--4-6-8--10-4--4-3-|
E------------------------------------------------------------------|

E-----------------------------------------------------|
B-----------------------------------------------------|     
G-66666666-88888888-11-11-11-11-13-13-13-13-6666-10---|    
D-xxxxxxxx-xxxxxxxx-x--x--x--x--x--x--x--x--xxxx-x----|
A-44444444-66666666-9--9--9--9--11-11-11-11-4444-8----|
E-----------------------------------------------------|

E-------------------------------------------------|
B-------------------------------------------------|     
G-11-11-11-11-11-11-11-11-13-13-13-13-13-13-13-13-|    
D-x--x--x--x--x--x--x--x--x--x--x--x--x--x--x--x--|
A-9--9--9--9--9--9--9--9--11-11-11-11-11-11-11-11-|
E-------------------------------------------------|

Guitar 2
E------------------------------------|
B------------------------------------|    x3
G------------------------------------|    
D-44444444-66666666-8888888888888888-|
A-44444444-66666666-8888888888888888-|
E-22222222-44444444-6666666666666666-|

E---------------------|
B---------------------|    
G---------------------|    
D-44444444-66666666-8-|
A-44444444-66666666-8-|
E-22222222-44444444-6-|


Final Chorus

Guitar 1
E--------------------------------------------------|
B--------------------------------------------------|    
G---6---6-6-6-6-6-6-6-6---6------------------------|    
D-6-6-4-6-6-6-6-6-6-6-6-6-6-4-4-4-4-4-4-4-4-4-6----|
A-6-4-4-4-4-4-4-4-4-4-4-6-4-4-4-4-4-4-4-4-4-4-6----|
E-4---2-----------------4---2-2-2-2-2-2-2-2-2-4----|

Guitar 2
E--------------|
B--------------|  x2  
G-6-13-10-9-10-|    
D-x-x--x--x-x--|
A-4-11-8--7-8--|
E--------------|

<>





Comments


Popular Fall Out Boy tabs & chords
Alone Together 2 Bass Tabs
Dance Dance 5 Bass Tabs
Dead On Arrival 3 Bass Tabs
Get Busy Living Or Get Busy Dying 3 Chords
Hum Hallelujah 3 Tabs
Sugar Were Goin Down Tabs
20 Dollar Nose Bleed Ukulele
Ginasfs Ukulele
My Songs Know What You Did In The Dark Light Em Up 2 Ukulele
Xo Ukulele


Song lyrics



↑ Back to top | Tablatures and chords are parodies/interpretations of the original songs. You may use it for private study, scholarship, research or language learning purposes only
© 2014 AZChords.com Contact us | Privacy policy | DMCA | Add/correct tabs | Request tabs | Top 50 tabs