» » »

America's Suitehearts Bass tabs (ver.1)

Artists:  A B C D E F G H I J K L M N O P Q R S T U V W X Y Z # 

America's Suitehearts Bass tabs (ver.1)

Fall Out Boy
Rating:
0/5 (0 votes)

Hard to play? Try these video lessons and learn fast.
                Bassist: Pete Wentz

Note: This song uses a combination of both picking and plucking.
You can easily play this song though with just a pick or just your fingers, but if you 
more of an accurate sound, use both.
Tuning is in dropped D.
G
D
A
D

Sorry that the tabs say
“G
  D
  A
  E”

I tabbed this by watching a handful of live footage of Fall Out Boy preforming this 
and watching where Pete's puts his hands on the fretboard.

Intro. Two ways you can play it, use either one you want.
Intro is plucked

Version 1 (I seen many of live footage, and this is the way Pete plays it.)
G|------------------------------------------------------------------|
D|------------------------------------------------------------------|
A|---00-00-0---00-00-0---00-00-0---00-00-0---00-00-0----------------|
E|------------------------------------------------------------------|

Version 2
G|------------------------------------------------------------------|
D|---------7---------7--------7--------7--------7-------------------|
A|---00-00-----00-00----00-00----00-00----00-00---------------------|
E|------------------------------------------------------------------|


Verse
Plucked
  “You could’ve knocked me out…”
G|------------------------------------------------------------------|
D|--------------------------------7---------------------------------|
A|---5----54----02----20----0202/5-5----5----54----02----20----0202-|
E|------------------------------------------------------------------|


Pre-Chorus
Picked
    “I don’t know much about classic cars”
G|------------------------------------------------------------------|
D|------------------------------------------------------------------|
A|------------------22-2-22-2-22-20----------------22-2-22-2-20-----|
E|---22-2-22-2-22-2-----------------22-2-22-2-22-2------------------|

     “Media Blitz”
G|------------------------------------------------------------------|
D|------------------------------------------------------------------|
A|------------------------------------------------------------------|
E|----5-55-5--------------------------------------------------------|
        ..


Chorus
Picked
Two ways you can play this.

Version 1


   “Lets hear it for America’s Suitehearts!”
G|------------------------------------------------------------------|
D|------------------------------------------------------------------|
A|------------------------------------------------------------------|
E|-00000-00000-99999-99999-55555-55555-0-999777555777---------------|
Repeat one more


Verse
Plucked

There is a slight pause after the lyrics “You can bow”
     “You can bow”
G|------------------------------------------------------------------|
D|--------------------------------7---------------------------------|
A|---5----54----02----20----0202/5-5----5----54----02----20----0202-|
E|------------------------------------------------------------------|


Pre-Chorus
Picked
   “Now I don’t know much about classic cars”
G|------------------------------------------------------------------|
D|------------------------------------------------------------------|
A|------------------22-2-22-2-22-20----------------22-2-22-2-20-----|
E|---22-2-22-2-22-2-----------------22-2-22-2-22-2------------------|

G|------------------------------------------------------------------|
D|------------------------------------------------------------------|
A|------------------------------------------------------------------|
E|----5-55-5--------------------------------------------------------|
        ..

Chorus
   “Let’s hear it for America’s Suitehearts”
G|------------------------------------------------------------------|
D|------------------------------------------------------------------|
A|------------------------------------------------------------------|
E|-00000-00000-99999-99999-55555-55555-0-999777555777---------------|

Break/Bridge
Version 1
   “You could’ve knocked me out”
G|------------------------------------------------------------------|
D|------------------------------------------------------------------|
A|---00-00-0---00-00-0---00-00-0---00-00-0---00-00-0----------------|
E|------------------------------------------------------------------|

Version 2
G|------------------------------------------------------------------|
D|---------7---------7--------7--------7--------7-------------------|
A|---00-00-----00-00----00-00----00-00----00-00---------------------|
E|------------------------------------------------------------------|


Chorus
  "Lets hear it for America's Suitehearts"
G|------------------------------------------------------------------|
D|------------------------------------------------------------------|
A|------------------------------------------------------------------|
E|-00000-00000-99999-99999-55555-55555-0-999777555777---------------|


G|------------------------------------------------------------------|
D|------------------------------------------------------------------|
A|------------------------------------------------------------------|
E|-00000-00000-99999-99999------55555-55555-0-999777555777----------|


Outro

G|---------------------------------|
D|---------------------------------|
A|---------------------------------|
E|-000--0000-0---------------------|


Thank you for looking.
Have fun playing it.
            
Hard to play? Try these video lessons and learn fast. | Correct




comments powered by Disqus
↑ Back to top | Tablatures and chords are parodies/interpretations of the original songs. You may use it for private study, scholarship, research or language learning purposes only