>
 >
Americas Suitehearts 2

Americas Suitehearts 2 Guitar Tabs

Fall Out Boy - Americas Suitehearts 2 chords, tabs, tablatures, lyrics

Guitar lessons | Add/correct | Request | Top 50 tabs Artists:  A B C D E F G H I J K L M N O P Q R S T U V W X Y Z 0-9

Americas Suitehearts 2 Guitar Tabs – Fall Out Boy

CD, Sheet music, Poster

Do you like Americas Suitehearts 2? Share with your friends now
Tabs
Song----America's Suitehearts
Album---Folie  Deux
Artist--Fall Out Boy





Gtr.Legends:
/ - slide
p - pull-off
h - hammer-on
. - palm muting
~ - let it ring

Tuning:Drop D

Gtr.1&2      Feed back from previous song (She's My Winona)
             Fades into (America's Suitehearts)

  (Goes on for 11 seconds---)  (Ends 0:04 seconds into America's Suitehearts)
e|----------------------------------------------------------------------------|
B|----------------------------------------------------------------------------|
G|-(4)~~~~~~~~~~~~~~~~~~~~~~~~~~~~~~~~~~~~~~~~~~~~~~~~~~~~~~~~~~~~~~~~~~~~~~--|
D|-(2)~~~~~~~~~~~~~~~~~~~~~~~~~~~~~~~~~~~~~~~~~~~~~~~~~~~~~~~~~~~~~~~~~~~~~~--|
A|-(2)~~~~~~~~~~~~~~~~~~~~~~~~~~~~~~~~~~~~~~~~~~~~~~~~~~~~~~~~~~~~~~~~~~~~~~--|
D|-(2)~~~~~~~~~~~~~~~~~~~~~~~~~~~~~~~~~~~~~~~~~~~~~~~~~~~~~~~~~~~~~~~~~~~~~~--|

^^^^^^^^^^^^^^^^^^^^^^^^^^^^^^^^^^^^^^^^^^^^^^^^^^^^^^^^^^^^^^^^^^^^^^^^^^^^^^^^^^^^^^^^^^^^^^^^^^


(Intro:) 

(Gtr.1)
e|-----------------------------------------------------------------------------------------------|
B|-000000000000000000000000*0000000000000000-0000000000000000-0000000000000000-0000000000000000\-|
G|-666666666666666666666666*6666666666666666-7777777777777777-9999999999999999-1010101010101010\-|
D|-777777777777777777777777*7777777777777777-7777777777777777-7777777777777777-7777777777777777\-|
A|-777777777777777777777777*7777777777777777-7777777777777777-7777777777777777-7777777777777777\-|
D|-----------------------------------------------------------------------------------------------|

(Gtr.3) 
e|----------------------------------------------------------------------------*----------------|
B|----------------------------------------------------------------------------*----------------|
G|------------------------------------------------------------9999999999999999*10101010101010\-|
D|------------------------------------------------------------7777777777777777*77777777777777\-|
A|----------------------------------------------------------------------------*----------------|
D|-----------------------------------------------------5/14\------------------*----------------|

(Gtr.2) 
e|----------------------------------------------|
B|----------------------------------------------|
G|----------------------------------------------|
D|-77-77--7---77-77--7---77-77--7---77-7--------|
A|-77-77--7---77-77--7---77-77--7---77-7--------|
D|-77-77--7---77-77--7---77-77--7---77-7--------|
   .. ..  .   .. ..  .   .. .. .    .. .
   
-------------------------------------------------------------------------------------------------

(Verse 1-)

(You could have knocked me out with a (Feather)....)

(Gtr.1:) (Panned Hard Left)

e|-2-xx-2-xx-2-xx-2-2-xx-2-xx-2-xx-2-2-xx-2-xx-2-xx-2---2-xx-2-xx-2-xx-2---|
B|-3-xx-3-xx-3-xx-3-2-xx-2-xx-2-xx-2-3-xx-3-xx-3-xx-3---2-xx-2-xx-2-xx-2---|
G|-2-xx-2-xx-2-xx-2-2-xx-2-xx-2-xx-2-4-xx-4-xx-4-xx-4---2-xx-2-xx-2-xx-2---|
D|-----------------------------------4-xx-4-xx-4-xx-4----------------------|
A|-------------------------------------------------------------------------|
D|-------------------------------------------------------------------------|
   

(Gtr.2:) (Panned Hard Right)

e|----------------------------5------*----------------------------5---------|     
B|-----------555-77---77---77---7----*-----------555-77---77---77---7--5----|
G|-----------------------------------*--------------------------------------|
D|---44-777---------7----7--------7--*---44-777---------7----7--------------|
A|-----------------------------------*--------------------------------------|
D|-----------------------------------*--------------------------------------|

|-----------------------------5------*----------------------------5---------|     
|------------555-77---77---77---7----*-----------555-77---77---77---7--5----|
|------------------------------------*--------------------------------------|
|----44-777---------7----7--------7--*---44-777---------7----7--------------|
|------------------------------------*--------------------------------------|
|------------------------------------*--------------------------------------|
   
   
(Pre-Chorus:) 

(But I don't know much about classic cars....)

(Gtr.1)
e|---------------------------*----------------------------------------------|
B|---------------------------*----------------------------------------------|
G|---------------------------*----------------------------------------------|
D|-2-22-22-22--9-99-99-9-9\7-*-2-22-22-22--9-99-99-9-9\7-5-55-5~~~----------|
A|-2-22-22-22--9-99-99-9-9\7-*-2-22-22-22--9-99-99-9-9\7-5-55-5~~~----------|
D|-2-22-22-22--9-99-99-9-9\7-*-2-22-22-22--9-99-99-9-9\7-5-55-5~~~----------|
   . .. .. ..  . .. .. .       . .. .. ..  . .. .. .       ..

(Gtr.2) (Panned Hard Left)
e|------------------------------*-------5-5-------5-5-5~-------------|
B|-5\3---7-7-5\3---7-7--5\3-----*-5\3-------5\3--------5~------------|
G|-----4---------4----------4\2-*-----4---------4--------------------|
D|------------------------------*------------------------------------|
A|------------------------------*------------------------------------|
D|------------------------------*------------------------------------|
       .         .                    .         .  

|-------------------------------*-------5-5-------5-5-5~--*-----------------|
|--5\3---7-7-5\3---7-7--5\3-----*-5\3-------5\3--------5~-*-3-5-7-10-7~~~\--|
|------4---------4----------4\2-*-----4---------4---------*-----------------|
|-------------------------------*-------------------------*-----------------|
|-------------------------------*-------------------------*-----------------|
|-------------------------------*-------------------------*-----------------|
       .         .                    .         .                        

(Chorus:) 

(Lets hear it for America's Suithearts...)

(Gtr.1&2)

e|-------------------------------------------------------------------------|
B|-------------------------------------------------------------------------|
G|------------7\------7\-----7\------7h9-----7\------7\--------------------|
D|-5/14\--000-x\-0000-x\-999-x\-9999-x-x-555-x\-5555-x\----9~-77~-55~-7777-|
A|-5/14\--000-5\-0000-5\-999-5\-9999-5h7-555-5\-5555-5\-xx-9~-77~-55~-7777-|
D|-5/14\--000----0000----999----9999-----555----5555----xx-9~-77~-55~-7777-|

|------------------------------------------------------------------------|
|------------------------------------------------------------------------|
|-----------7\------7\-----7\------7h9-----7\------7\--------------------|
|-------000-x\-0000-x\-999-x\-9999-x-x-555-x\-5555-x\----9~-77~-55~-7777-|
|-------000-5\-0000-5\-999-5\-9999-5h7-555-5\-5555-5\-xx-9~-77~-55~-7777-|
|-------000----0000----999----9999-----555----5555----xx-9~-77~-55~-7777-|


-----------------------------------------------------------------------------


(Verse 2:)

(You can bow and pretend that you)

(Gtr.1:)

e|----2-xx-2-xx-2-xx-2---2-xx-2-xx-2-xx-2----*----2-xx-2-xx-2-xx-2---|
B|----3-xx-3-xx-3-xx-3---2-xx-2-xx-2-xx-2----*----2-xx-2-xx-2-xx-2---|
G|----2-xx-2-xx-2-xx-2---2-xx-2-xx-2-xx-2----*----2-xx-2-xx-2-xx-2---|
D|-------------------------------------------*-----------------------|
A|-------------------------------------------*-----------------------|
D|-------------------------------------------*-----------------------|

|-2-xx-2-xx-2-xx-2--2-xx-2-xx-2-xx-2--2-xx-2-xx-2-xx-2---2-xx-2-xx-2-xx-2---|
|-3-xx-3-xx-3-xx-3--2-xx-2-xx-2-xx-2--3-xx-3-xx-3-xx-3---2-xx-2-xx-2-xx-2---|
|-2-xx-2-xx-2-xx-2--2-xx-2-xx-2-xx-2--4-xx-4-xx-4-xx-4---2-xx-2-xx-2-xx-2---|
|-------------------------------------4-xx-4-xx-4-xx-4----------------------|
|---------------------------------------------------------------------------|
|---------------------------------------------------------------------------|


(Gtr.2:) (Joe)(Panned Hard Right)     (Don't, Don't Know....)
                                      (4 second Pause)
e|----------------------------5------*--------------------------5---------|     
B|-----------555-77---77---77---7----*------------------77---77---7--5----|
G|-----------------------------------*------------------------------------|
D|---44-777---------7----7--------7--*---------------------7--------------|
A|-----------------------------------*------------------------------------|
D|-----------------------------------*------------------------------------|

|-----------------------------5------*----------------------------5---------|     
|------------555-77---77---77---7----*-----------555-77---77---77---7--5----|
|------------------------------------*--------------------------------------|
|----44-777---------7----7--------7--*---44-777---------7----7--------------|
|------------------------------------*--------------------------------------|
|------------------------------------*--------------------------------------|
   
   
(Pre-Chorus:)

(But I don't know much about classic cars....

(Gtr.1)

e|---------------------------*----------------------------------------------|
B|---------------------------*----------------------------------------------|
G|---------------------------*----------------------------------------------|
D|-2-22-22-22--9-99-99-9-9\7-*-2-22-22-22--9-99-99-9-9\7-5-55-5~~~----------|
A|-2-22-22-22--9-99-99-9-9\7-*-2-22-22-22--9-99-99-9-9\7-5-55-5~~~----------|
D|-2-22-22-22--9-99-99-9-9\7-*-2-22-22-22--9-99-99-9-9\7-5-55-5~~~----------|
   . .. .. ..  . .. .. .       . .. .. ..  . .. .. .       ..

(Gtr.2) (Panned Hard Left)
e|------------------------------*-------5-5-------5-5-5~-------------|
B|-5\3---7-7-5\3---7-7--5\3-----*-5\3-------5\3--------5~------------|
G|-----4---------4----------4\2-*-----4---------4--------------------|
D|------------------------------*------------------------------------|
A|------------------------------*------------------------------------|
D|------------------------------*------------------------------------|
       .         .                    .         .  

|-------------------------------*-------5-5-------5-5-5~--*-----------------|
|--5\3---7-7-5\3---7-7--5\3-----*-5\3-------5\3--------5~-*-3-5-7-10-7~~~\--|
|------4---------4----------4\2-*-----4---------4---------*-----------------|
|-------------------------------*-------------------------*-----------------|
|-------------------------------*-------------------------*-----------------|
|-------------------------------*-------------------------*-----------------|
       .         .                    .         .                        

(Chorus:) 

(Lets hear it for America's Suithearts...)

(Gtr.1&2) 

e|-------------------------------------------------------------------------|
B|-------------------------------------------------------------------------|
G|------------7\------7\-----7\------7h9-----7\------7\--------------------|
D|-5/14\--000-x\-0000-x\-999-x\-9999-x-x-555-x\-5555-x\----9~-77~-55~-7777-|
A|-5/14\--000-5\-0000-5\-999-5\-9999-5h7-555-5\-5555-5\-xx-9~-77~-55~-7777-|
D|-5/14\--000----0000----999----9999-----555----5555----xx-9~-77~-55~-7777-|

|--------------------------------------------------------------------------|
|--------------------------------------------------------------------------|
|-------------7\------7\-----7\------7h9-----7\------7\--------------------|
|---------000-x\-0000-x\-999-x\-9999-x-x-555-x\-5555-x\----9~-77~-55~-7777-|
|---------000-5\-0000-5\-999-5\-9999-5h7-555-5\-5555-5\-xx-9~-77~-55~-7777-|
|---------000----0000----999----9999-----555----5555----xx-9~-77~-55~-7777-|



(Gtr.3)

e|--------------------------------*-----------5----------------5----|
B|-7\5-7\5-7\5-7\5-7\5-7\5-7\5-7\5*-7\5-7\5-7--5-----7\5-7\5-7--5---|
G|--------------------------------*---------------------------------|
D|--------------------------------*---------------------------------|
A|--------------------------------*---------------------------------|
D|--------------------------------*---------------------------------|

|-----------5--------------5--------------5--------------5----*|
|-7\5-7\5-7--5---7\5-7\5-7--5---7\5-7\5-7--5---7\5-7\5-7--5---*|
|-------------------------------------------------------------*|
|-------------------------------------------------------------*|
|-------------------------------------------------------------*|
|-------------------------------------------------------------*|

|---------------------------------*|
|-7\5-7\5-7\5-7\5-7\5-7\5-7\5-7\5-*|
|---------------------------------*|
|---------------------------------*|
|---------------------------------*|
|---------------------------------*|

-----------------------------------------------------------------------------



(Bridge:)

(You could have knocked me out with a (Feather)....)
 
(Gtr.1)  

e|---------------------------------------------------------------------|
B|-0000000000000000-0000000000000000-0000000000000000-0000000000000000-|
G|-6666666666666666-7777777777777777-6666666666666666-7777777777777777-|
D|-7777777777777777-7777777777777777-7777777777777777-7777777777777777-|
A|-7777777777777777-7777777777777777-7777777777777777-7777777777777777-|
D|---------------------------------------------------------------------|

|---------------------------------------------------------------|
|--0000000000000000-0000000000000000-0000000000000000-00000000\-|
|--6666666666666666-7777777777777777-6666666666666666-77777777\-|
|--7777777777777777-7777777777777777-7777777777777777-77777777\-|
|--7777777777777777-7777777777777777-7777777777777777-77777777\-|
|---------------------------------------------------------------|

(Gtr.3)
e|-----------------------*----------------*----------------*------------------|
B|-----------------------*----------------*----------------*------------------|
G|-------9999999999999999*1010101010101010*9999999999999999*1010101010101010\-|
D|-------7777777777777777*7777777777777777*7777777777777777*7777777777777777\-|
A|-----------------------*----------------*----------------*------------------|
D|-5/14\-----------------*----------------*----------------*------------------|

(Gtr.2)
e|------------------------------------------------------------------------------|
B|--------------------------------------------------------------------------0\--|
G|--------------------------------------------------------------------------5\--|
D|-77-77--7--77-77--7--77-77--7--77-77--7--77-77--7--77-77--7--77-77--7--77-7\--|
A|-77-77--7--77-77--7--77-77--7--77-77--7--77-77--7--77-77--7--77-77--7--77-7\--|
D|-77-77--7--77-77--7--77-77--7--77-77--7--77-77--7--77-77--7--77-77--7--77-7\--|
   .. ..  .  .. ..  .  .. ..  .  .. ..  .  .. ..  .  .. ..  .  .. ..  .  ..

-------------------------------------------------------------------------------------------------

(Chorus:A) 

(Lets hear it for America's Suithearts...)

(Gtr.1&2) 
              
e|-------------------------------------------------------------------------|
B|-------------------------------------------------------------------------|
G|------------7\------7\-----7\------7h9-----7\------7\--------------------|
D|-5/14\--000-x\-0000-x\-999-x\-9999-x-x-555-x\-5555-x\----9~-77~-55~-7777-|
A|-5/14\--000-5\-0000-5\-999-5\-9999-5h7-555-5\-5555-5\-xx-9~-77~-55~-7777-|
D|-5/14\--000----0000----999----9999-----555----5555----xx-9~-77~-55~-7777-|
                                                          (#)
|--------------------------------------------------------------------------|
|--------------------------------------------------------------------------|
|-------------7\------7\-----7\------7h9-----7\------7\--------------------|
|---------000-x\-0000-x\-999-x\-9999-x-x-555-x\-5555-x\----9~-77~-55~-7777-|
|---------000-5\-0000-5\-999-5\-9999-5h7-555-5\-5555-5\-xx-9~-77~-55~-7777-|
|---------000----0000----999----9999-----555----5555----xx-9~-77~-55~-7777-|

(Comes in at end of (Chorus:A):where the (#) is)

(Plays throughout until Chorus B Starts)

(Gtr.3)

e|--------------------------------*-----------5----------------5----|
B|-7\5-7\5-7\5-7\5-7\5-7\5-7\5-7\5*-7\5-7\5-7--5-----7\5-7\5-7--5---|
G|--------------------------------*---------------------------------|
D|--------------------------------*---------------------------------|
A|--------------------------------*---------------------------------|
D|--------------------------------*---------------------------------|

|-----------5--------------5--------------5--------------5----*|
|-7\5-7\5-7--5---7\5-7\5-7--5---7\5-7\5-7--5---7\5-7\5-7--5---*|
|-------------------------------------------------------------*|
|-------------------------------------------------------------*|
|-------------------------------------------------------------*|
|-------------------------------------------------------------*|

|---------------------------------*|
|-7\5-7\5-7\5-7\5-7\5-7\5-7\5-7\5-*|
|---------------------------------*|
|---------------------------------*|
|---------------------------------*|
|---------------------------------*|

------------------------------------------------------------------------------

(Chorus:B)

(Lets here it, oh lets hear it.. Lets here it, oh lets.... Suitehearts.)

(Gtr.1&2)

|---------------------------------------------------------------------------|
|---------------------------------------------------------------------------|
|-----7\------7\-----7\------7h9-----7\------7\--------------------000-0000-|
|-000-x\-0000-x\-999-x\-9999-x-x-555-x\-5555-x\----9~-77~-55~-7777-000-0000-|
|-000-5\-0000-5\-999-5\-9999-5h7-555-5\-5555-5\-xx-9~-77~-55~-7777-000-0000-|
|-000----0000----999----9999-----555----5555----xx-9~-77~-55~-7777-000-0000-|
                                                  (#)              ... ....


                                                                              
(Gtr.3) (Comes in at the (#)             

|------------------------------*-----------------|
|-7\5-7\5-7\5-7\5-7\5-7\5-7\5--*-3/5-3~~~~~~~~~~-|
|------------------------------*-----------------|
|------------------------------*-----------------|
|------------------------------*-----------------|
|------------------------------*-----------------|


------------------------------------------------------------------------------





Comments


Popular Fall Out Boy tabs & chords
Disloyal Order Of Water Buffaloes Bass Tabs
I Dont Care 5 Bass Tabs
Americas Suitehearts 3 Chords
Just One Yesterday Chords
The Phoenix 1 Chords
Beat It Drum Tabs
27 1 Tabs
Champagne For My Real Friends Real Pain For My Sham Friends Ukulele
Just One Yesterday Ukulele
Our Lawyer Made Us Change The Name To This To This Song So We Wouldnt Get Sued Ukulele


Song lyrics



↑ Back to top | Tablatures and chords are parodies/interpretations of the original songs. You may use it for private study, scholarship, research or language learning purposes only
© 2014 AZChords.com Contact us | Privacy policy | DMCA | Add/correct tabs | Request tabs | Top 50 tabs