» » »

A Little Less Sixteen Candles A Little More Touch Me Tabs (ver.2)

Artists:  A B C D E F G H I J K L M N O P Q R S T U V W X Y Z # 

A Little Less Sixteen Candles A Little More Touch Me Tabs (ver.2)

Fall Out Boy
Rating:
0/5 (0 votes)

Tabs too difficult? Try these video lessons and learn fast.
                
h: hammer on
p: pull off
.: palm mute
\: slide
/: slide

Intro:
Guitar 1:
(0:00)
e|---------------|---------------|--------------|-----------|
B|---------------|---------------|--------------|-----------|
G|-7p0-11-9-9-9--|-7p0-11-9-9-9--|-7p0-11-9-9-9-|-12-11-5/7-|
D|---------------|---------------|--------------|-----------|
A|-5p0-9--7-7-7--|-5p0-9--7-7-7--|-5p0-9--7-7-7-|-10-9--7/5-|
D|---------------|---------------|--------------|-----------|

Guitar 2:
(0:00)
e|---------------|---------------|---------------|----------|
B|---------------|---------------|---------------|----------|
G|---------------|---------------|---------------|----------|
D|-0-0-4-5-5-5-5-|-0-0-7-9-9-9-9-|-0-0-4-5-5-5-5-|-9--7--5--|
A|-0-0-4-5-5-5-5-|-0-0-7-9-9-9-9-|-0-0-4-5-5-5-5-|-9--7--5--|
D|-0-0-4-5-5-5-5-|-0-0-7-9-9-9-9-|-0-0-4-5-5-5-5-|-9--7--5--|


Verse:
(0:14-0:35)
e|-----------------|-----------------|-----------------|-----------------|
B|-----------------|-----------------|-----------------|-----------------|
G|-7-7-7-7-7-7-7-7-|-9-9-9-9-9-9-9-9-|-----------------|-----------------|
D|-7-7-7-7-7-7-7-7-|-9-9-9-9-9-9-9-9-|-9-9-9-9-9-9-9-9-|-5-5-5-5-5-5-5-5-|
A|-5-5-5-5-5-5-5-5-|-7-7-7-7-7-7-7-7-|-9-9-9-9-9-9-9-9-|-5-5-5-5-5-5-5-5-|
D|-----------------|-----------------|-9-9-9-9-9-9-9-9-|-5-5-5-5-5-5-5-5-|
PM ...............   ...............   ...............   ...............


PreChorus:
(0:36)
e|-----------------|-----------------|-----------------|-----------------|
B|-----------------|-----------------|-----------------|-----------------|
G|-----------------|-4-4-4-4-4-4-4-4-|-----------------|-----------------|
D|-5-5-5-5-5-5-5-5-|-4-4-4-4-4-4-4-4-|-5-5-5-5-5-5-5-5-|-0-0-0-0-0-0-0-0-|
A|-5-5-5-5-5-5-5-5-|-2-2-2-2-2-2-2-2-|-5-5-5-5-5-5-5-5-|-0-0-0-0-0-0-0-0-|
D|-5-5-5-5-5-5-5-5-|-----------------|-5-5-5-5-5-5-5-5-|-0-0-0-0-0-0-0-0-|
PM                                                       ...............


Chorus:
(0:44)                                            1st Ending  2nd Ending
e|---------------|---------------|---------------|----------||----------|
B|---------------|---------------|---------------|----------||----------|
G|---------------|---------------|---------------|----------||----------|
D|-0-0-4-5-5-5-5-|-0-0-7-9-9-9-9-|-0-0-4-5-5-5-5-|-9--7--5--||--0-------|
A|-0-0-4-5-5-5-5-|-0-0-7-9-9-9-9-|-0-0-4-5-5-5-5-|-9--7--5--||--0-------|
D|-0-0-4-5-5-5-5-|-0-0-7-9-9-9-9-|-0-0-4-5-5-5-5-|-9--7--5--||--0-------|


Back to Intro:
Guitar 1:
(0:58)
e|---------------|---------------|--------------|-----------|
B|---------------|---------------|--------------|-----------|
G|-7p0-11-9-9-9--|-7p0-11-9-9-9--|-7p0-11-9-9-9-|-12-11-5/7-|
D|---------------|---------------|--------------|-----------|
A|-5p0-9--7-7-7--|-5p0-9--7-7-7--|-5p0-9--7-7-7-|-10-9--7/5-|
D|---------------|---------------|--------------|-----------|

Guitar 2:
(0:58) *Same as chorus*
e|---------------|---------------|---------------|----------|
B|---------------|---------------|---------------|----------|
G|---------------|---------------|---------------|----------|
D|-0-0-4-5-5-5-5-|-0-0-7-9-9-9-9-|-0-0-4-5-5-5-5-|-9--7--5--|
A|-0-0-4-5-5-5-5-|-0-0-7-9-9-9-9-|-0-0-4-5-5-5-5-|-9--7--5--|
D|-0-0-4-5-5-5-5-|-0-0-7-9-9-9-9-|-0-0-4-5-5-5-5-|-9--7--5--|


Verse 2:
(1:06-1:27)
e|-----------------|-----------------|-----------------|-----------------|
B|-----------------|-----------------|-----------------|-----------------|
G|-7-7-7-7-7-7-7-7-|-9-9-9-9-9-9-9-9-|-----------------|-----------------|
D|-7-7-7-7-7-7-7-7-|-9-9-9-9-9-9-9-9-|-9-9-9-9-9-9-9-9-|-5-5-5-5-5-5-5-5-|
A|-5-5-5-5-5-5-5-5-|-7-7-7-7-7-7-7-7-|-9-9-9-9-9-9-9-9-|-5-5-5-5-5-5-5-5-|
D|-----------------|-----------------|-9-9-9-9-9-9-9-9-|-5-5-5-5-5-5-5-5-|
PM ...............   ...............   ...............   ...............

Guitar 2:
(1:21)
e|-----------------|-----------------|-----------------|-----------------|
B|-----------------|-----------------|-----------------|-----------------|
G|-7---7---7---7---|-7---7---7---7---|-7---7---7---7---|-7---7---7---7---|
D|-----------------|-----------------|-----------------|-----------------|
A|-5---5---5---5---|-5---5---5---5---|-5---5---5---5---|-5---5---5---5---|
D|-----------------|-----------------|-----------------|-----------------|


PreChorus:
(1:28)
e|-----------------|-----------------|-----------------|-----------------|
B|-----------------|-----------------|-----------------|-----------------|
G|-----------------|-4-4-4-4-4-4-4-4-|-----------------|-----------------|
D|-5-5-5-5-5-5-5-5-|-4-4-4-4-4-4-4-4-|-5-5-5-5-5-5-5-5-|-0---------------|
A|-5-5-5-5-5-5-5-5-|-2-2-2-2-2-2-2-2-|-5-5-5-5-5-5-5-5-|-0---------------|
D|-5-5-5-5-5-5-5-5-|-----------------|-5-5-5-5-5-5-5-5-|-0---------------|
PM                                                       


Chorus:
(1:34)                                            1st Ending  2nd Ending
e|----------------|---------------|---------------|----------||----------|
B|----------------|---------------|---------------|----------||----------|
G|----------------|---------------|---------------|----------||----------|
D|-\0-0-4-5-5-5-5-|-0-0-7-9-9-9-9-|-0-0-4-5-5-5-5-|-9--7--5--||--0-------|
A|-\0-0-4-5-5-5-5-|-0-0-7-9-9-9-9-|-0-0-4-5-5-5-5-|-9--7--5--||--0-------|
D|-\0-0-4-5-5-5-5-|-0-0-7-9-9-9-9-|-0-0-4-5-5-5-5-|-9--7--5--||--0-------|


Bridge:
Guitar 1:
(1:49)
e|-----------------|-----------------|-----------------|-----------------|
B|-----------------|-----------------|-----------------|-----------------|
G|-----------------|-----------------|-----------------|-----------------|
D|-----------------|-----------------|-----------------|-----------------|
A|-7p5-9p5-7p5-9p5-|-7p5-9p5-7p5-9p5-|-7p5-9p5-7p5-9p5-|-7p5-9p5-7p5-9p5-|
D|-----------------|-----------------|-----------------|-----------------|


Guitar 2:
(1:49)
e|-------|-------|-------||------------|---------------||
B|-------|-------|-------||------------|---------------||
G|-------|-------|-------||------------|---------------||
D|-0-0-0-|-5-5-5-|-5~~---||-0-0-0--0-0-|-5-5-5~-5-5-5~-|| Repeat this part 4x
A|-0-0-0-|-5-5-5-|-5~~---||-0-0-0--0-0-|-5-5-5~-5-5-5~-||
D|-0-0-0-|-5-5-5-|-5~~---||-0-0-0--0-0-|-5-5-5~-5-5-5~-||
PM . . .   . . .            . . .  . .   . .    . .


Chorus:
(2:11)                                            1st Ending  2nd Ending
e|---------------|---------------|---------------|----------||----------|
B|---------------|---------------|---------------|----------||----------|
G|---------------|---------------|---------------|----------||----------|
D|-0-0-4-5-5-5-5-|-0-0-7-9-9-9-9-|-0-0-4-5-5-5-5-|-9--7--5--||--0-------|
A|-0-0-4-5-5-5-5-|-0-0-7-9-9-9-9-|-0-0-4-5-5-5-5-|-9--7--5--||--0-------|
D|-0-0-4-5-5-5-5-|-0-0-7-9-9-9-9-|-0-0-4-5-5-5-5-|-9--7--5--||--0-------|


Back to Intro:
Guitar 1:
(2:26)
e|---------------|---------------|--------------|-----------|
B|---------------|---------------|--------------|-----------|
G|-7p0-11-9-9-9--|-7p0-11-9-9-9--|-7p0-11-9-9-9-|-12-11-5/7-|
D|---------------|---------------|--------------|-----------|
A|-5p0-9--7-7-7--|-5p0-9--7-7-7--|-5p0-9--7-7-7-|-10-9--7/5-|
D|---------------|---------------|--------------|-----------|

Guitar 2:
(2:26) *Same as chorus*
e|---------------|---------------|---------------|----------|
B|---------------|---------------|---------------|----------|
G|---------------|---------------|---------------|----------|
D|-0-0-4-5-5-5-5-|-0-0-7-9-9-9-9-|-0-0-4-5-5-5-5-|-9--7--5--|
A|-0-0-4-5-5-5-5-|-0-0-7-9-9-9-9-|-0-0-4-5-5-5-5-|-9--7--5--|
D|-0-0-4-5-5-5-5-|-0-0-7-9-9-9-9-|-0-0-4-5-5-5-5-|-9--7--5--|


Ending:
(2:39)
e|-----|-----|
B|-----|-----|
G|-----|-7~--|
D|-5---|-7~--|
A|-5---|-5~--|
D|-5---|-----|
        Clean


   Questions? comments? requests?: Email
            
Tabs too difficult? Try these video lessons and learn fast.


comments powered by Disqus
↑ Back to top | Tablatures and chords are parodies/interpretations of the original songs. You may use it for private study, scholarship, research or language learning purposes only