>
 >
A Little Less Sixteen Candles, A Little More "Touch Me"

A Little Less Sixteen Candles, A Little More "Touch Me" Guitar Tabs

Fall Out Boy - A Little Less Sixteen Candles, A Little More "Touch Me" chords, tabs, tablatures, lyrics

Guitar lessons | Add/correct | Request | Top 50 tabs Artists:  A B C D E F G H I J K L M N O P Q R S T U V W X Y Z 0-9

A Little Less Sixteen Candles, A Little More "Touch Me" Guitar Tabs – Fall Out Boy

CD, Sheet music, Poster

Do you like A Little Less Sixteen Candles, A Little More "Touch Me"? Share with your friends now
Bass TabsBass Tabs v2ChordsChords v2TabsTabs v2Tabs v3
Title  A Little Less Sixteen Candles, A Little More "Touch Me"
Artist- Fall Out Boy
Album  From Under the Cork Tree


Tuning: Drop D
Guitar 1  Distortion
Guitar 2  Distortion

 _________________
|Intro (0:00-0:15)|
|_________________|

Guitar 1 & 2
e| |--------|
B| |--------|
G| |-\------|
D| |(\)-----|
A| |-\------|
D| |-\------|


Guitar 1
e| |---------------------------------|---------------------------------|
B| |o--------------------------------|--------------------------------o|
G| |-7-011-9---9-9-9-7-011-9---9-9-9-|-7-011-9---9-9-912--11---9-\-7---|
D| |-x(0)x-x---x-x-x-x(0)x-x---x-x-x-|-x(0)x-x---x-x-x-x---x---x---x---|
A| |o5-0-9-7---7-7-7-5-0-9-7---7-7-7-|-5-0-9-7---7-7-710---9---7-\-5--o|
D| |--(0)-------------(0)------------|--(0)----------------------------|
  1.                                                                   |
  2.                                                             I con |
                                                                       |
Guitar 2                                                               |
e| |---------------------------------|---------------------------------|
B| |o--------------------------------|--------------------------------o|
G| |---------------------------------|---------------------------------|
D| |-0-0-4-5-5-5-5-5-5-5-7-9-9-9-9-9-|-4-4-4-5-5-5-5-5-5---5---5-5-5---|
A| |o0-0-4-5-5-5-5-5-5-5-7-9-9-9-9-9-|-4-4-4-5-5-5-5-5-5---5---5-5-5--o|
D| |-0-0-4-5-5-5-5-5-5-5-7-9-9-9-9-9-|-4-4-4-5-5-5-5-5-5---5---5-5-5---|

 _________________
|Verse (0:15-0:36)|
|_________________|

Guitar 1
e| |---------------------------------|---------------------------------|
B| |---------------------------------|---------------------------------|
G| |-7-7-7-7-7-7-7-7-9-9-9-9-9-9-9-9-|---------------------------------|
D| |-7-7-7-7-7-7-7-7-9-9-9-9-9-9-9-9-|-9-9-9-9-9-9-9-9-5-5-5-5-5-5-5-5-|
A| |-5-5-5-5-5-5-5-5-7-7-7-7-7-7-7-7-|-9-9-9-9-9-9-9-9-5-5-5-5-5-5-5-5-|
D| |---------------------------------|-9-9-9-9-9-9-9-9-5-5-5-5-5-5-5-5-|
     * * * * * * * * * * * * * * * *   * * * * * * * * * * * * * * * *
     -fess I'm just  Dropping "I'm     You're still          And I know
     messed up       sorrys" like      around

Guitar 1
e| |---------------------------------|---------------------------------|
B| |---------------------------------|---------------------------------|
G| |-7-7-7-7-7-7-7-7-9-9-9-9-9-9-9-9-|---------------------------------|
D| |-7-7-7-7-7-7-7-7-9-9-9-9-9-9-9-9-|-9-9-9-9-9-9-9-9-5-5-5-5-5-5-5-5-|
A| |-5-5-5-5-5-5-5-5-7-7-7-7-7-7-7-7-|-9-9-9-9-9-9-9-9-5-5-5-5-5-5-5-5-|
D| |---------------------------------|-9-9-9-9-9-9-9-9-5-5-5-5-5-5-5-5-|
     * * * * * * * * * * * * * * * *   * * * * * * * * * * * * * * * * |
     you dressed up  "Hey kid, you'll  Live this down"                 |
                      never                                            |
                                                                       |
Guitar 2                                                               |
e| |---------------------------------|---------------------------------|
B| |---------------------------------|---------------------------------|
G| |---------------------------------|-------------------------------7-|
D| |---------------------------------|-------------------------------x-|
A| |---------------------------------|-------------------------------5-|
D| |---------------------------------|---------------------------------|

Guitar 1
e| |---------------------------------|---------------------------------|
B| |---------------------------------|---------------------------------|
G| |-7-7-7-7-7-7-7-7-9-9-9-9-9-9-9-9-|---------------------------------|
D| |-7-7-7-7-7-7-7-7-9-9-9-9-9-9-9-9-|-9-9-9-9-9-9-9-9-5-5-5-5-5-5-5-5-|
A| |-5-5-5-5-5-5-5-5-7-7-7-7-7-7-7-7-|-9-9-9-9-9-9-9-9-5-5-5-5-5-5-5-5-|
D| |---------------------------------|-9-9-9-9-9-9-9-9-5-5-5-5-5-5-5-5-|
     * * * * * * * * * * * * * * * *   * * * * * * * * * * * * * * * * |
     You're just the Boys want to      I'm just the   Too many chances |
     girl all the    dance with and    boy whose had                   |
                                                                       |
Guitar 2                                                               |
e| |---------------------------------|---------------------------------|
B| |---------------------------------|---------------------------------|
G| |---------------------------------|---------------------------7---7-|
D| |---------------------------------|---------------------------x---x-|
A| |---------------------------------|---------------------------5---5-|
D| |---------------------------------|---------------------------------|

 ______________________
|Pre-Chorus (0:36-0:43)|
|______________________|

Guitar 1
e| |---------------------------------|---------------------------------|
B| |---------------------------------|---------------------------------|
G| |---------------------------------|---------------------------------|
D| |-5-5-5-5-5-5-5-5-9-9-9-9-9-9-9-9-|-5-5-5-5-5-5-5-5-5-5-5-5-5-5-5-5-|
A| |-5-5-5-5-5-5-5-5-9-9-9-9-9-9-9-9-|-5-5-5-5-5-5-5-5-5-5-5-5-5-5-5-5-|
D| |-5-5-5-5-5-5-5-5-9-9-9-9-9-9-9-9-|-5-5-5-5-5-5-5-5-5-5-5-5-5-5-5-5-|
                                                         * * *
     I'm sleeping on Porch again,      She said, she said, she said,
     your folk's     dreaming          "Why don't you just drop dead"
 __________________
|Chorus (0:44-0:58)|
|__________________|

Guitar 1
e| |---------------------------------|---------------------------------|
B| |---------------------------------|---------------------------------|
G| |---------------------------------|---------------------------------|
D| |-0-0-4-5-5-5-5-5-5-5-7-9-9-9-9-9-|-4-4-4-5-5-5-5-5-9---7---5-5-5---|
A| |-0-0-4-5-5-5-5-5-5-5-7-9-9-9-9-9-|-4-4-4-5-5-5-5-5-9---7---5-5-5---|
D| |-0-0-4-5-5-5-5-5-5-5-7-9-9-9-9-9-|-4-4-4-5-5-5-5-5-9---7---5-5-5---|
     I don't blame you, for being you  But you can't   Hating it       |
                                       blame me for                    |
                                                                       |
Guitar 2                                                               |
e| |10--10--10--10--10--10--10--10---|10--10--10--10--10--10--10--10---|
B| |--10--10--10--10--10--10--10--10-|--10--10--10--10--10--10--10--10-|
G| |---------------------------------|---------------------------------|
D| |---------------------------------|---------------------------------|
A| |---------------------------------|---------------------------------|
D| |---------------------------------|---------------------------------|

Guitar 1
e| |---------------------------------|---------------------------------|
B| |---------------------------------|---------------------------------|
G| |---------------------------------|---------------------------------|
D| |-0-0-4-5-5-5-5-5-5-5-7-9-9-9-9-9-|-4-4-4-5-5-5-5-5-5---------------|
A| |-0-0-4-5-5-5-5-5-5-5-7-9-9-9-9-9-|-4-4-4-5-5-5-5-5-5---------------|
D| |-0-0-4-5-5-5-5-5-5-5-7-9-9-9-9-9-|-4-4-4-5-5-5-5-5-5---------------|
     So say, what are  Kiss her,       I set my clocks Know I'm always |
     you waiting for?  kiss her        early 'cause I  late            |
                                                                       |
Guitar 2                                                               |
e| |10--10--10--10--10--10--10--10---|10--10--10--10--10---------------|
B| |--10--10--10--10--10--10--10--10-|--10--10--10--10-----------------|
G| |---------------------------------|---------------------------------|
D| |---------------------------------|---------------------------------|
A| |---------------------------------|---------------------------------|
D| |---------------------------------|---------------------------------|

 _____________________
|Interlude (0:58-1:05)|
|_____________________|

Guitar 1
e| |---------------------------------|---------------------------------|
B| |o--------------------------------|--------------------------------o|
G| |-7-011-9---9-9-9-7-011-9---9-9-9-|-7-011-9---9-9-912--11---9-\-7---|
D| |-x(0)x-x---x-x-x-x(0)x-x---x-x-x-|-x(0)x-x---x-x-x-x---x---x---x---|
A| |o5-0-9-7---7-7-7-5-0-9-7---7-7-7-|-5-0-9-7---7-7-710---9---7-\-5--o|
D| |--(0)-------------(0)------------|--(0)----------------------------|
                                                           Write me up |
                                                                       |
Guitar 2                                                               |
e| |---------------------------------|---------------------------------|
B| |---------------------------------|---------------------------------|
G| |---------------------------------|---------------------------------|
D| |-0-0-4-5-5-5-5-5-5-5-7-9-9-9-9-9-|-4-4-4-5-5-5-5-5-5---5---5-5-5---|
A| |-0-0-4-5-5-5-5-5-5-5-7-9-9-9-9-9-|-4-4-4-5-5-5-5-5-5---5---5-5-5---|
D| |-0-0-4-5-5-5-5-5-5-5-7-9-9-9-9-9-|-4-4-4-5-5-5-5-5-5---5---5-5-5---|

 _________________
|Verse (1:05-1:27)|
|_________________|

Guitar 1
e| |---------------------------------|---------------------------------|
B| |o--------------------------------|--------------------------------o|
G| |-7-7-7-7-7-7-7-7-9-9-9-9-9-9-9-9-|---------------------------------|
D| |-7-7-7-7-7-7-7-7-9-9-9-9-9-9-9-9-|-9-9-9-9-9-9-9-9-5-5-5-5-5-5-5-5-|
A| |o5-5-5-5-5-5-5-5-7-7-7-7-7-7-7-7-|-9-9-9-9-9-9-9-9-5-5-5-5-5-5-5-5o|
D| |---------------------------------|-9-9-9-9-9-9-9-9-5-5-5-5-5-5-5-5-|
     * * * * * * * * * * * * * * * *   * * * * * * * * * * * * * * * * |
  1. Give up on me   'Cause darling    You expect         I'm just off |
                     what do                                           |
  2. A long cause,   A long shot       Take this bet           You can |
                     don't even                                        |
                                                                       |
Guitar 2                                                               |
e| |---------------------------------|---------------------------------|
B| |o--------------------------------|--------------------------------o|
G| |---------------------------------|---------------------------7---7-|
D| |---------------------------------|---------------------------x---x-|
A| |o--------------------------------|---------------------------5---5o|
D| |---------------------------------|---------------------------------|

Guitar 1
e| |---------------------------------|---------------------------------|
B| |---------------------------------|---------------------------------|
G| |---------------------------------|---------------------------------|
D| |-0-0---0-0-0---0-2-2---2-2-2---2-|-4-4---4-4-4---4-5-5---5-5-5-5-5-|
A| |-0-0---0-0-0---0-2-2---2-2-2---2-|-4-4---4-4-4---4-5-5---5-5-5-5-5-|
D| |-0-0---0-0-0---0-2-2---2-2-2---2-|-4-4---4-4-4---4-5-5---5-5-5-5-5-|
     Make all the    You can aim all   Get all the sighs and           |
     moves,          the spotlights    the moans just right            |
                                                                       |
Guitar 2                                                               |
e| |---------------------------------|---------------------------------|
B| |---------------------------------|---------------------------------|
G| |-7-7---7-7-7---7-7-7---7-7-7---7-|-7-7---7-7-7---7-7-7---7-7-7-7-7-|
D| |-x-x---x-x-x---x-x-x---x-x-x---x-|-x-x---x-x-x---x-x-x---x-x-x-x-x-|
A| |-5-5---5-5-5---5-5-5---5-5-5---5-|-5-5---5-5-5---5-5-5---5-5-5-5-5-|
D| |---------------------------------|---------------------------------|

 ______________________
|Pre-Chorus (1:27-1:34)|
|______________________|

Guitar 1
e| |---------------------------------|---------------------------------|
B| |---------------------------------|---------------------------------|
G| |---------------------------------|-------------------------------\-|
D| |-5-5-5-5-5-5-5-5-9-9-9-9-9-9-9-9-|-5-5-5-5-5-5-5-5-5------------(\)|
A| |-5-5-5-5-5-5-5-5-9-9-9-9-9-9-9-9-|-5-5-5-5-5-5-5-5-5-------------\-|
D| |-5-5-5-5-5-5-5-5-9-9-9-9-9-9-9-9-|-5-5-5-5-5-5-5-5-5------------(\)|
     I'm sleeping on Porch again,      She said, she said, she said,
     your folk's     dreaming          "Why don't you just drop dead"

 __________________
|Chorus (1:34-1:48)|
|__________________|

Guitar 1
e| |---------------------------------|---------------------------------|
B| |---------------------------------|---------------------------------|
G| |---------------------------------|---------------------------------|
D| |-0-0-4-5-5-5-5-5-5-5-7-9-9-9-9-9-|-4-4-4-5-5-5-5-5-9---7---5-5-5---|
A| |-0-0-4-5-5-5-5-5-5-5-7-9-9-9-9-9-|-4-4-4-5-5-5-5-5-9---7---5-5-5---|
D| |-0-0-4-5-5-5-5-5-5-5-7-9-9-9-9-9-|-4-4-4-5-5-5-5-5-9---7---5-5-5---|
     I don't blame you, for being you  But you can't   Hating it       |
                                       blame me for                    |
                                                                       |
Guitar 2                                                               |
e| |10--10--10--10--10--10--10--10---|10--10--10--10--10--10--10--10---|
B| |--10--10--10--10--10--10--10--10-|--10--10--10--10--10--10--10--10-|
G| |---------------------------------|---------------------------------|
D| |---------------------------------|---------------------------------|
A| |---------------------------------|---------------------------------|
D| |---------------------------------|---------------------------------|

Guitar 1
e| |---------------------------------|---------------------------------|
B| |---------------------------------|---------------------------------|
G| |---------------------------------|---------------------------------|
D| |-0-0-4-5-5-5-5-5-5-5-7-9-9-9-9-9-|-4-4-4-5-5-5-5-5-9---7---5-5-5---|
A| |-0-0-4-5-5-5-5-5-5-5-7-9-9-9-9-9-|-4-4-4-5-5-5-5-5-9---7---5-5-5---|
D| |-0-0-4-5-5-5-5-5-5-5-7-9-9-9-9-9-|-4-4-4-5-5-5-5-5-9---7---5-5-5---|
     So say, what are  Kiss her,       I set my clocks Know I'm always |
     you waiting for?  kiss her        early 'cause I  late            |
                                                                       |
Guitar 2                                                               |
e| |10--10--10--10--10--10--10--10---|10--10--10--10--10--10--10--10---|
B| |--10--10--10--10--10--10--10--10-|--10--10--10--10--10--10--10--10-|
G| |---------------------------------|---------------------------------|
D| |---------------------------------|---------------------------------|
A| |---------------------------------|---------------------------------|
D| |---------------------------------|---------------------------------|

 __________________
|Bridge (1:48-2:10)|
|__________________|

Guitar 1
e| |---------------------------------|---------------------------------|
B| |---------------------------------|---------------------2h3-----2h3-|
G| |-----2---------------------------|-----2---------------------------|
D| |-0-0---0-2-0-4-0-2-0-2-4-5-4-2-0-|-0-0---0-2-0-4-0-----------------|
A| |---------------------------------|---------------------------------|
D| |---------------------------------|---------------------------------|
     Always... Always on...            You said you'd keep me honest   |
                                                                       |
Guitar 2                                                               |
e| |---------------------------------|---------------------------------|
B| |---------------------------------|---------------------------------|
G| |---------------------------------|---------------------------------|
D| |-4-4-4-----------5-5-5---0~------|-2-2-2-----2-2---7-7-7---5-5-5---|
A| |-4-4-4-----------5-5-5---0~------|-2-2-2-----2-2---7-7-7---5-5-5---|
D| |-4-4-4-----------5-5-5---0~------|-2-2-2-----2-2---7-7-7---5-5-5---|
     * * *           * * *             * * *     * *   * *     * *

Guitar 1
e| |---------------------------------|---------------------------------|
B| |---------------------------------|---------------------2h3-----2h3-|
G| |-----2---------------------------|-----2---------------------------|
D| |-0-0---0-2-0-4-0-2-0-2-4-5-4-2-0-|-0-0---0-2-0-4-0-----------------|
A| |---------------------------------|---------------------------------|
D| |---------------------------------|---------------------------------|
     Always... Always on...            But I won't call you on it      |
                                                                       |
Guitar 2                                                               |
e| |---------------------------------|---------------------------------|
B| |---------------------------------|---------------------------------|
G| |---------------------------------|---------------------------------|
D| |-4-4-4-----4-4---5-5-5-----5-5-\-|-2-2-2-----2-2---7-7-7---5-5-5---|
A| |-4-4-4-----4-4---5-5-5-----5-5-\-|-2-2-2-----2-2---7-7-7---5-5-5---|
D| |-4-4-4-----4-4---5-5-5-----5-5-\-|-2-2-2-----2-2---7-7-7---5-5-5---|
     * * *     * *   * * *     *       * * *     * *   * *     * *

Guitar 1
e| |---------------------------------|---------------------------------|
B| |---------------------------------|---------------------------------|
G| |-----2---------------------------|---------------------------------|
D| |-0-0---0-2-0-4-0-2-0-2-4-5-4-2-0-|-5~------------------------------|
A| |---------------------------------|-5~------------------------------|
D| |---------------------------------|-5~------------------------------|
     Always... Always on...                                            |
                                                                       |
Guitar 2                                                               |
e| |---------------------------------|---------------------------------|
B| |---------------------------------|---------------------------------|
G| |---------------------------------|---------------------------------|
D| |-4-4-4-----4-4---5-5-5-----5-5-5-|-5~------------------------------|
A| |-4-4-4-----4-4---5-5-5-----5-5-5-|-5~------------------------------|
D| |-4-4-4-----4-4---5-5-5-----5-5-5-|-5~------------------------------|
     * * *     * *   * * *     * * *

 __________________
|Chorus (2:10-2:24)|
|__________________|

Guitar 1
e| |---------------------------------|---------------------------------|
B| |---------------------------------|---------------------------------|
G| |---------------------------------|---------------------------------|
D| |-0-0-4-5-5-5-5-5-5-5-7-9-9-9-9-9-|-4-4-4-5-5-5-5-5-9---7---5-5-5---|
A| |-0-0-4-5-5-5-5-5-5-5-7-9-9-9-9-9-|-4-4-4-5-5-5-5-5-9---7---5-5-5---|
D| |-0-0-4-5-5-5-5-5-5-5-7-9-9-9-9-9-|-4-4-4-5-5-5-5-5-9---7---5-5-5---|
     I don't blame you, for being you  But you can't   Hating it       |
                                       blame me for                    |
                                                                       |
Guitar 2                                                               |
e| |10--10--10--10--10--10--10--10---|10--10--10--10--10--10--10--10---|
B| |--10--10--10--10--10--10--10--10-|--10--10--10--10--10--10--10--10-|
G| |---------------------------------|---------------------------------|
D| |---------------------------------|---------------------------------|
A| |---------------------------------|---------------------------------|
D| |---------------------------------|---------------------------------|

Guitar 1
e| |---------------------------------|---------------------------------|
B| |---------------------------------|---------------------------------|
G| |---------------------------------|---------------------------------|
D| |-0-0-4-5-5-5-5-5-5-5-7-9-9-9-9-9-|-4-4-4-5-5-5-5-5-9---7---5-5-5---|
A| |-0-0-4-5-5-5-5-5-5-5-7-9-9-9-9-9-|-4-4-4-5-5-5-5-5-9---7---5-5-5---|
D| |-0-0-4-5-5-5-5-5-5-5-7-9-9-9-9-9-|-4-4-4-5-5-5-5-5-9---7---5-5-5---|
     So say, what are  Kiss her,       I set my clocks Know I'm always |
     you waiting for?  kiss her        early 'cause I                  |
                                                                       |
Guitar 2                                                               |
e| |10--10--10--10--10--10--10--10---|10--10--10--10--10--10--10--10---|
B| |--10--10--10--10--10--10--10--10-|--10--10--10--10--10--10--10--10-|
G| |---------------------------------|---------------------------------|
D| |---------------------------------|---------------------------------|
A| |---------------------------------|---------------------------------|
D| |---------------------------------|---------------------------------|

 _________________
|Outro (2:25-2:49)|
|_________________|

Guitar 1
e| |---------------------------------|---------------------------------|
B| |o--------------------------------|--------------------------------o|
G| |-7-011-9---9-9-9-7-011-9---------|-7-011-9---9-9-912--11---9-\-7---|
D| |-x(0)x-x---x-x-x-x(0)x-x---------|-x(0)x-x---x-x-x-x---x---x---x---|
A| |o5-0-9-7---7-7-7-5-0-9-7---------|-5-0-9-7---7-7-710---9---7-\-5--o|
D| |--(0)-------------(0)------------|--(0)----------------------------|
     Late...                                                           |
                                                                       |
Guitar 2                                                               |
e| |---------------------------------|---------------------------------|
B| |---------------------------------|---------------------------------|
G| |---------------------------------|---------------------------------|
D| |-0-0-4-5-5-5-5-5-5-5-7-9-9-9-9-9-|-4-4-4-5-5-5-5-5-5---5---5-5-5---|
A| |-0-0-4-5-5-5-5-5-5-5-7-9-9-9-9-9-|-4-4-4-5-5-5-5-5-5---5---5-5-5---|
D| |-0-0-4-5-5-5-5-5-5-5-7-9-9-9-9-9-|-4-4-4-5-5-5-5-5-5---5---5-5-5---|

Guitar 1
e| |---------------------------------|---------------------------------|
B| |---------------------------------|---------------------------------|
G| |-7-011-9---9-9-9-7-011-9---9-9-9-|-7-011-9---9-9-919---------------|
D| |-x(0)x-x---x-x-x-x(0)x-x---x-x-x-|-x(0)x-x---x-x-x-x---------------|
A| |-5-0-9-7---7-7-7-5-0-9-7---7-7-7-|-5-0-9-7---7-7-717---------------|
D| |--(0)-------------(0)------------|--(0)----------------------------|
                                       I set my clocks Know I'm always |
                                       early 'cause I                  |
                                                                       |
Guitar 2                                                               |
e| |---------------------------------|---------------------------------|
B| |---------------------------------|---------------------------------|
G| |---------------------------------|---------------------------------|
D| |-0-0-4-5-5-5-5-5-5-5-7-9-9-9-9-9-|-4-4-4-5-5-5-5-5-5---------------|
A| |-0-0-4-5-5-5-5-5-5-5-7-9-9-9-9-9-|-4-4-4-5-5-5-5-5-5---------------|
D| |-0-0-4-5-5-5-5-5-5-5-7-9-9-9-9-9-|-4-4-4-5-5-5-5-5-5---------------|

Guitar 1 & 2
e| |---------------------------------|---------------------------------|
B| |---------------------------------|---------------------------------|
G| |-7~~~----------------------------|---------------------------------|
D| |-7~~~----------------------------|---------------------------------|
A| |-5~~~----------------------------|---------------------------------|
D| |---------------------------------|---------------------------------|
     Late...

 ________
| Legend |
|________|

h   - Hammer on
~   - Sustain
\   - Slide down
x   - Mute
(0) - Slightly played
 _______
| Notes |
|_______|

I don't know what to say except the new video for this song is weird...





Comments


Popular Fall Out Boy tabs & chords
Its Hard To Say I Do When I Dont Bass Tabs
Sophmore Slump Or Comeback Of The Year Bass Tabs
Grand Theft Autumn Where Is Your Boy Chords
My Songs Know What You Did In The Dark 3 Chords
Our Lawyer Made Us Change The Name To This To This Song So We Wouldnt Get Sued Chords
Thnks Fr Th Mmrs 1 Chords
7 Minutes In Heaven (Atavan Halen) Tabs
Short, Fast, And Loud Tabs
Take Over Thebreaks Over Tabs
The Carpal Tunnel Of Love Tabs


Song lyrics



↑ Back to top | Tablatures and chords are parodies/interpretations of the original songs. You may use it for private study, scholarship, research or language learning purposes only
© 2014 AZChords.com Contact us | Privacy policy | DMCA | Add/correct tabs | Request tabs | Top 50 tabs