» » »

Fall Out Boy, 20 Dollar Nose Bleed Tabs (ver.3)

Artists:  A B C D E F G H I J K L M N O P Q R S T U V W X Y Z # 

20 Dollar Nose Bleed Tabs (ver.3)

Fall Out Boy Tabs
 Rating:
4.8/5 (24 votes)
20 Dollar Nose Bleed lessons Tabs too difficult? Try these video lessons and learn fast
1
                -------------------------------------------------------------------------------
                           20 Dollar Nose Bleed - Fall Out Boy
-------------------------------------------------------------------------------
Huge thanks to Randomba55ist with the bass tabs

Tuning:Standard
Main 'riff'- played throughout verses
e|----------------------------------------------------------------|
B|----------------------------------------------------------------|
G|---------5-5-5-5-------------------------8-8-8-8----------------|
D|-6-6-6-6-5-5-5-5-3-3-3-3-6-6-6-6-8-8-8-8-8-8-8-8----------------|
A|-6-6-6-6-3-3-3-3-3-3-3-3-6-6-6-6-8-8-8-8-6-6-6-6----------------|
E|-4-4-4-4---------1-1-1-1/4-4-4-4/6-6-6-6------------------------|

Pre-Chorus- the part where Brendon comes in
e|----------------------------------------------------------------|
B|----------------------------------------------------------------|
G|-----------------------------------------8-8-8-8----------------|
D|-6-6-6-6-5-5-5-5-3-3-3-3-6-6-6-6-8-8-8-8-8-8-8-8----------------|
A|-6-6-6-6-5-5-5-5-3-3-3-3-6-6-6-6-8-8-8-8-6-6-6-6----------------|
E|-4-4-4-4-3-3-3-3-1-1-1-1-4-4-4-4/6-6-6-6------------------------|

Chorus- Call me mR. bENzedrine
e|--------------------------------------|
B|--------------------------------------|
G|--------------------------------------|
D|-----5555--------6666-----88-66-55-33-|
A|-666633333333666644446666-66-44-33-11-|
E|-4444----11114444----4444-------------|
't' = 10
e|-------------------||-------------------------------||
B|-------------------||-------------------------------||
G|-------------------||.t---3-5-6----------8-6--tt-8-.||
D|tttt-8888-6666-3333||-t---3-5-6-6-5-3--3-8-6--tt-8-.||
A|8888-6666-4444-1111||.8---1-3-4-6-5-3--3-6-4--88-6--||
E|-------------------||-----------4-3-1--1------------||

Verse
Pre-chorus
Chorus

Bridge:
Another guitar could lightly strum the verse chords
e|----------------------------------------------------------------|
B|----------------------------------------------------------------|
G|6--8--t--------------------------6-6-6--------------------------|
D|6--8--t--------------------------6-6-6--------------------------|
A|4--6--8--------------------------4-4-4--------------------------|
E|----------------------------------------------------------------|

Verse- the part after the bridge isn't the verse cause it's got alot more funky 
however, i seem to find it okay to play along.

Chorus
End~
* a little note, if you're planning to play this in a show and you don't got a pianist, 
the empty silences with just the keys playing, you can play
G# in the 11th position.
            
Submit corrections

comments powered by Disqus
↑ Back to top | Fall Out Boy Tabs for 20 Dollar Nose Bleed. Lyrics for acoustic guitar and electric guitar. 1 Tablatures and chords are parodies/interpretations of the original songs. You may use it for private study, scholarship, research or language learning purposes only