» » »

20 Dollar Nose Bleed Tabs (ver.1)

Artists:  A B C D E F G H I J K L M N O P Q R S T U V W X Y Z # 

20 Dollar Nose Bleed Tabs (ver.1)

Fall Out Boy
Rating:
4/5 (7 votes)

Hard to play? Try these video lessons and learn fast.
                
REAL FANS SUPPORT BANDS BY PURCHASING THEIR CDS!

Tuning: Standard

. = Palm-Muted
~ = hold note
^ = vibrate
p = pull off
h = hammer on
/ = slide up
\ = slide down


Announcement: THIS IS NOT A COPY!! THERE WERE MANY PARTS WRONG ON THE OTHER TABS 
(EXCEPT THE GUITAR-PRO TAB, I DONT HAVE THAT PROGRAMM), SO I MADE MY OWN TAB. THANK YOU!


//Intro\\:
G# only piano


//Verse\\:                   [not sure]
       G#       C        F       G#         A#                D#
E----------------------------------------------------------------------------|
B----------------------------------------------------------------------------|
G------------5-5-5-5------------------------------------8-8-8-8-8-8-8-8------|
D---6-6-6-6--5-5-5-5--3-3-3-3/6-6-6-6/8-8-8-8-8-8-8-8p6-8-8-8-8-8-8-8-8------|
A---6-6-6-6--3-3-3-3--3-3-3-3/6-6-6-6/8-8-8-8-8-8-8-8p6-6-6-6-6-6-6-6-6------|
E---4-4-4-4-----------1-1-1-1/4-4-4-4/6-6-6-6-6-6-6-6---6-6-6-6-6-6-6-6------|


//Pre-Chorus\\:  (Just a G instead of a C)
       G#      G       F       G#         A#                D#
E-------------------------------------------------------------------------|
B-------------------------------------------------------------------------|
G-----------------------------------------------------8-8-8-8-8-8-8-8-----|
D---6-6-6-6\5-5-5-5\3-3-3-3/6-6-6-6/8-8-8-8-8-8-8-8p6-8-8-8-8-8-8-8-8-----|
A---6-6-6-6\5-5-5-5\3-3-3-3/6-6-6-6/8-8-8-8-8-8-8-8p6-6-6-6-6-6-6-6-6-----|
E---4-4-4-4\3-3-3-3\1-1-1-1/4-4-4-4/6-6-6-6-6-6-6-6---6-6-6-6-6-6-6-6-----|

The trumpet plays something like this:
E---------------11----------------------------------------------------|
B------11--13-----------13--11---------------------------------14-----|
G--13----------------------------13--10--13----10~-----12-------------|
D----------------------------------------------------------13---------|
A---------------------------------------------------------------------|
E---------------------------------------------------------------------|
Veeeeryy cool trumpet part! :D


//Chorus\\:  (normal strumming)
    G#    C     F     D#     C#     G#    D#
E----------------------------------------------------|
B----------------------------------------------------|
G---------5-----------8------6------------8----------|
D---6-----5-x4--3-----8-x4---6-x4---6-----8-x8-------|
A---6-x4--3-----3-x4--6------4------6-x4--6----------|
E---4-----------1-------------------4----------------|

    F      C     C#    A#
E--------------------------------|
B--------------------------------|
G----------5-----6---------------|
D---3------5-x4--6-x4--8---------|  (no trumpets are playing)
A---3-x4---3-----4-----8-x4------|
E---1------------------6---------|

//Interlude\\:

THE TRUMPETS:

1. trumpet  E---8--8-9-8---8--6--4----4--3--1----8-8--6-------|
            B-------------------------------------------------|
2. trumpet  G---5--5-6-5---5--3--1---------------5-5--3-------|
            D-------------------------6--5--3-----------------|
            A-------------------------------------------------|
            E-------------------------------------------------|


THE GUITAR:
E-----------------------------------------------------|
B-----------------------------------------------------|
G-------3--5--6---------------10--8--6---10-10-8------|
D---3---3--5--6---6--5--3-----10--8--6---10-10-8------|
A---3---1--3--4---6--5--3-----8---6--4---8--8--6------|
E---1-------------4--3--1-----------------------------|


//REPEAT VERSE\\

//REPEAT PRE-CHORUS\\

//REPEAT CHORUS\\


//Interlude\\
Bep-bep-bep-bep-Benzedrine  (clap)
ORGAN PLAYS CHORUS, GUITAR PLAYS THIS
E------------------------------------|
B------------------------------------|
G---8--9--10----------6-6-6----------|
D---8--9--10----------6-6-6----------|
A---6--7--8-----------4-4-4----------|
E------------------------------------|

//REPEAT VERSE ONCE\\

//REPEAT CHORUS AND INTERLUDE\\


//Outro\\
E---------------------------|
B---------------------------|
G---------5-----------------|
D---6-----5-x4--3-----------|
A---6-x4--3-----3-~---------|
E---4-----------1-----------|


and that's it... I hope this helped, please rate, comment and correct me!

Cheers...
            
Hard to play? Try these video lessons and learn fast. | Correct




comments powered by Disqus
↑ Back to top | Tablatures and chords are parodies/interpretations of the original songs. You may use it for private study, scholarship, research or language learning purposes only