>
 >
Im Not A Vampire 1

Im Not A Vampire 1 Guitar Tabs

Falling In Reverse - Im Not A Vampire 1 chords, tabs, tablatures, lyrics

Guitar lessons | Add/correct | Request | Top 50 tabs Artists:  A B C D E F G H I J K L M N O P Q R S T U V W X Y Z 0-9

Im Not A Vampire 1 Guitar Tabs – Falling In Reverse

CD, Sheet music, Poster

Do you like Im Not A Vampire 1? Share with your friends now
Bass TabsBass Tabs v2Bass Tabs v3ChordsChords v2Chords v3TabsTabs v2Tabs v3Tabs v4Tabs v5Ukulele
-------------------------------------------------------------------------------
      I'M NOT A VAMPIRE - Falling In Reverse
 -------------------------------------------------------------------------------

 Tuning: Drop C

 This is my first tab. I'm not gonna say "Go easy on me." If it's crap, tell me. Seriously.

 Intro

 d|-------------------------------------------------------------------------|
 A|-------------------------------------------------------------------------|
 F|-------------------------------------------------------------------------|
 C|--2-2---2-2-2---2-2-2---2-2-2---2-7-7---7-7-7---7-7-7---7-7-7------------|
 G|--2-2---2-2-2---2-2-2---2-2-2---2-7-7---7-7-7---7-7-7---7-7-7------------|
 C|--2-2---2-2-2---2-2-2---2-2-2---2-7-7---7-7-7---7-7-7---7-7-7------------|


 d|----------------------------------------------------------------------------|
 A|----------------------------------------------------------------------------|
 F|----------------------------------------------------------------------------|
 C|--7-10-10---10-10-10---10-10-10---10-10-10---10-9-9---9-9-9---9-9-9---9-9-9-|
 G|--7-10-10---10-10-10---10-10-10---10-10-10---10-9-9---9-9-9---9-9-9---9-9-9-|
 C|--7-10-10---10-10-10---10-10-10---10-10-10---10-9-9---9-9-9---9-9-9---9-9-9-|

 Intro Solo

 d|-------------------------------------------------------------------------|
 A|--15b17~---13b15~---10p8h10---10--10-8-10-8-10-8--10--10-8-10/12-8p7-----|
 F|---------------------------------------------------------------------8---|
 C|-------------------------------------------------------------------------|
 G|-------------------------------------------------------------------------|
 C|-------------------------------------------------------------------------|

 Verse

 d|-------------------------------------------------------------------------|
 A|-------------------------------------------------------------------------|
 F|-------------------------------------------------------------------------|
 C|--2-2---2-2-2---2-2-2---2-2-2---2-7-7---7-7-7---7-7-7---7-7-7------------|
 G|--2-2---2-2-2---2-2-2---2-2-2---2-7-7---7-7-7---7-7-7---7-7-7------------|
 C|--2-2---2-2-2---2-2-2---2-2-2---2-7-7---7-7-7---7-7-7---7-7-7------------|
 PM  . .   . . .   . . .   . . .   . . .   . . .   . . .   . . .


 d|----------------------------------------------------------------------------|
 A|----------------------------------------------------------------------------|
 F|----------------------------------------------------------------------------|
 C|--7-10-10---10-10-10---10-10-10---10-10-10---10-9-9---9-9-9---9-9-9---9-9-9-|
 G|--7-10-10---10-10-10---10-10-10---10-10-10---10-9-9---9-9-9---9-9-9---9-9-9-|
 C|--7-10-10---10-10-10---10-10-10---10-10-10---10-9-9---9-9-9---9-9-9---9-9-9-|
 PM  . .  .    .  .  .    .  .  .    .  .  .    .  . .   . . .   . . .   . . .


 d|-------------------------------------------------------------------------|
 A|-------------------------------------------------------------------------|
 F|-------------------------------------------------------------------------|
 C|--2-2---2-2-2---2-2-2---2-2-2---2-7-7---7-7-7---7-7-7---7-7-7------------|
 G|--2-2---2-2-2---2-2-2---2-2-2---2-7-7---7-7-7---7-7-7---7-7-7------------|
 C|--2-2---2-2-2---2-2-2---2-2-2---2-7-7---7-7-7---7-7-7---7-7-7------------|
 PM  . .   . . .   . . .   . . .   . . .   . . .   . . .   . . .


 d|----------------------------------------------------------------------------|
 A|----------------------------------------------------------------------------|
 F|----------------------------------------------------------------------------|
 C|--7-10-10---10-10-10---10-10-10---10-10-10---10-9-9---9-9-9---9-9-9---9-9-9-|
 G|--7-10-10---10-10-10---10-10-10---10-10-10---10-9-9---9-9-9---9-9-9---9-9-9-|
 C|--7-10-10---10-10-10---10-10-10---10-10-10---10-9-9---9-9-9---9-9-9---9-9-9-|
 PM  . .  .    .  .  .    .  .  .    .  .  .    .  . .   . . .   . . .   . . .

 Pre-Chorus

 d|---------------------------------------------------------------------------|
 A|---------------------------------------------------------------------------|
 F|--5-5---7-7-------------------5-5---7-7---4-4---5-5-5-5-7-7-7-7------------|
 C|--5-5---7-7---2-2---4-4-5-5---5-5---7-7---4-4---5-5-5-5-7-7-7-7------------|
 G|--3-3---5-5---2-2---4-4-5-5---3-3---5-5---2-2---3-3-3-3-5-5-5-5------------|
 C|--------------2-2---4-4-5-5------------------------------------------------|

 Chorus

 d|---------------------------------------------------------------------------|
 A|---------------------------------------------------------------------------|
 F|---------------------------------------------------------------------------|
 C|--2-2-2-2-2-2-2-2-2-2-2-2-2-2-2-2-7-7-7-7-7-7-7-7-7-7-7-7-7-7-7-7----------|
 G|--2-2-2-2-2-2-2-2-2-2-2-2-2-2-2-2-7-7-7-7-7-7-7-7-7-7-7-7-7-7-7-7----------|
 C|--2-2-2-2-2-2-2-2-2-2-2-2-2-2-2-2-7-7-7-7-7-7-7-7-7-7-7-7-7-7-7-7----------|


 d|-------------------------------------------------------------------------------------|
 A|-------------------------------------------------------------------------------------|
 F|-------------------------------------------------------------------------------------|
 C|--10-10-10-10-10-10-10-10-10-10-10-10-10-10-10-10--9-9-9-9-9-9-9-9-9-9-9-9-9-9-9-9---|
 G|--10-10-10-10-10-10-10-10-10-10-10-10-10-10-10-10--9-9-9-9-9-9-9-9-9-9-9-9-9-9-9-9---|
 C|--10-10-10-10-10-10-10-10-10-10-10-10-10-10-10-10--9-9-9-9-9-9-9-9-9-9-9-9-9-9-9-9---|


 d|---------------------------------------------------------------------------|
 A|---------------------------------------------------------------------------|
 F|---------------------------------------------------------------------------|
 C|--2-2-2-2-2-2-2-2-2-2-2-2-2-2-2-2-7-7-7-7-7-7-7-7-7-7-7-7-7-7-7-7----------|
 G|--2-2-2-2-2-2-2-2-2-2-2-2-2-2-2-2-7-7-7-7-7-7-7-7-7-7-7-7-7-7-7-7----------|
 C|--2-2-2-2-2-2-2-2-2-2-2-2-2-2-2-2-7-7-7-7-7-7-7-7-7-7-7-7-7-7-7-7----------|


 d|-------------------------------------------------------------------------------------|
 A|-------------------------------------------------------------------------------------|
 F|-------------------------------------------------------------------------------------|
 C|--10-10-10-10-10-10-10-10-10-10-10-10-10-10-10-10--9-9-9-9-9-9-9-9-9-9-9-9-9-9-9-9---|
 G|--10-10-10-10-10-10-10-10-10-10-10-10-10-10-10-10--9-9-9-9-9-9-9-9-9-9-9-9-9-9-9-9---|
 C|--10-10-10-10-10-10-10-10-10-10-10-10-10-10-10-10--9-9-9-9-9-9-9-9-9-9-9-9-9-9-9-9---|

 Repeat Intro
 Repeat Verse
 Repeat Pre-Chorus
 Repeat Chorus

 Solo

 d|---------------------------------------------------------------------------|
 A|---------------------------------------------------------------------------|
 F|--9-12-11-12--9-12-11-12--9-12-11-12--9-12-11-12---8-11-9-11--8-11-9-11----|
 C|---------------------------------------------------------------------------|
 G|---------------------------------------------------------------------------|
 C|---------------------------------------------------------------------------|


 d|-------------------------------------------------------------------------------|
 A|--12-12-10-12-8-12-7-12---8-12-10-12---8-12-10-12---8-12-10-12---8-12-10-12----|
 F|-------------------------------------------------------------------------------|
 C|-------------------------------------------------------------------------------|
 G|-------------------------------------------------------------------------------|
 C|-------------------------------------------------------------------------------|

 (I'm fairly sure this part isn't right. Any help with it would be appreciated :))
 d|-----------11-14-11-------11-----------------------------------------------|
 A|--------13----------13-------13-------13-----------------------------------|
 F|--11-14----------------14-------14-11----14-11-8---------------------------|
 C|---------------------------------------------------------------------------|
 G|---------------------------------------------------------------------------|
 C|---------------------------------------------------------------------------|

 The whole of 2:30 to about 2:40 I have no clue what's going on.

 I'm also not sure of this part but it sounds to me like these notes are being played. 
Power chords don't sound right, though.

 d|---------------------------------------------------------------------------|
 A|---------------------------------------------------------------------------|
 F|----------------4-2----2---------------------4-2----2----------------------|
 C|--5-4-2--5-4-2------5----5-4----5-4-2--5-4-2------5----5-4-----------------|
 G|---------------------------------------------------------------------------|
 C|---------------------------------------------------------------------------|

 There's some delay used here where the strings are muted.

 d|---------------------------------------------------------------------------|
 A|---------------------------------------------------------------------------|
 F|---------------------------------------------------------------------------|
 C|--2-2-x---2-2-x---2-2-x---7-7-x---10-10-x---9-9-x--------------------------|
 G|--2-2-x---2-2-x---2-2-x---7-7-x---10-10-x---9-9-x--------------------------|
 C|--2-2-x---2-2-x---2-2-x---7-7-x---10-10-x---9-9-x--------------------------|

 (Flanger?)

 And then it goes back into the chorus. And I'm not too sure about the last lead guitar part.

 That's pretty much it. I'm sorry if I didn't have some of the parts that you wanted but 
I tried my hardest.





Comments


Popular Falling In Reverse tabs & chords
Drifter 2 Bass Tabs
Pick Up The Phone 4 Bass Tabs
Self Destruct Personality Bass Tabs
Sink Or Swim Bass Tabs
Drifter 3 Chords
Born To Lead Tabs
Fashionably Late 1 Tabs
Self-destruct Personality Intro Tabs
The Drug In Me Is You 1 Tabs
Im Not A Vampire Ukulele


Song lyrics



↑ Back to top | Tablatures and chords are parodies/interpretations of the original songs. You may use it for private study, scholarship, research or language learning purposes only
© 2014 AZChords.com Contact us | Privacy policy | DMCA | Add/correct tabs | Request tabs | Top 50 tabs