» » »

Im Not A Vampire Tabs (ver.1)

Artists:  A B C D E F G H I J K L M N O P Q R S T U V W X Y Z # 

Im Not A Vampire Tabs (ver.1)

Falling In Reverse
Rating:
0/5 (0 votes)

Hard to play? Try these video lessons and learn fast.
                This is quite an easy song apart from the solo, which is why I've classed this as 
an advanced song. the timings etc you should be able to pick up as play, hope this 


Intro
Guitar 1 & 2
D|-------------------------------------------------------------------|
A|-------------------------------------------------------------------|
F|-------------------------------------------------------------------|
C|-22-222-222-22-77-777-777-77-1010-101010-101010-1010-99-999-999-99-|
G|-22-222-222-22-77-777-777-77-1010-101010-101010-1010-99-999-999-99-|
C|-22-222-222-22-77-777-777-77-1010-101010-101010-1010-99-999-999-99-|

Guitar 1
D|-12---10----------------------------------------------------------------|
A|-15b-13b--10p8h10--10-8-10-10-8-10-10-8-10-10-8-10b-8-7/8---------------|
F|-|this part looks tricky on tab, but easy enough in real life|-8--------|
C|------------------------------------------------------------------------|
G|------------------------------------------------------------------------|
C|------------------------------------------------------------------------|

Guitar 2
D|-------------------------------------------------------------------|
A|-------------------------------------------------------------------|
F|-------------------------------------------------------------------|
C|-22-222-222-22-77-777-777-77-1010-101010-101010-1010-99-999-999-99-|
G|-22-222-222-22-77-777-777-77-1010-101010-101010-1010-99-999-999-99-|
C|-22-222-222-22-77-777-777-77-1010-101010-101010-1010-99-999-999-99-|
x--------(Im not sure if this is palm muted or not, sorry)----------x

Verse

Guitar 1 & 2 
D|-------------------------------------------------------------------|
A|-------------------------------------------------------------------|
F|-------------------------------------------------------------------|
C|-22-222-222-22-77-777-777-77-1010-101010-101010-1010-99-999-999-99-|
G|-22-222-222-22-77-777-777-77-1010-101010-101010-1010-99-999-999-99-|
C|-22-222-222-22-77-777-777-77-1010-101010-101010-1010-99-999-999-99-|
 x--------------------------palm muted------------------------------x



Pre-Chorus
D|-----------------------------------------------|
A|-----------------------------------------------|
F|-----------------------------------------------|
C|-55-77-22-44-55-55-77-44-5555-7777-------------|
G|-33-55-22-44-55-33-55-22-3333-5555-------------|
C|----------22-44-55-----------------------------|

Chorus

D|------------------------------------------------------------------|
A|------------------------------------------------------------------|
F|------------------------------------------------------------------|
C|-2~~~~~~~~~~~-7~~~~~~~~~~~-10~~~~~~~~~~~~~~-9~~~~~~~~~~~~---------|
G|-2~~~~~~~~~~~-7~~~~~~~~~~~-10~~~~~~~~~~~~~~-9~~~~~~~~~~~~---------|
C|-2~~~~~~~~~~~-7~~~~~~~~~~~-10~~~~~~~~~~~~~~-9~~~~~~~~~~~~---------| [x2]

Then repeat everything, apart from the intro.

Crazy Solo

D|-------------------|
A|-------------------|
F|--9--12--11--12----|
C|-------------------|
G|-------------------|
C|-------------------|[x4]

D|------------------|--------------------------------|
A|------------------|--12--12--10--12--8--12--7--12--|
F|--8--11--9--11----|--------------------------------|
C|------------------|--------------------------------|
G|------------------|--------------------------------|
C|--------------[x2]|--------------------------------|

D|-------------------|
A|--8--12--10--12----|
F|-------------------|
C|-------------------|
G|-------------------|
C|-------------------|[x4]


D|--------------11--14--11--------------------------------------|
A|----------13--------------13--------------15--13--12----------|
F|--11--14----------------------14--11--14--------------14--11--|
C|--------------------------------------------------------------|
G|--------------------------------------------------------------|
C|--------------------------------------------------------------|

D|-------------------|----------------------------------------|
A|-------------------|----------------------------------------|
F|--9--12--11--12--x4|--9--11--12--8--9--11--11--12--14--16*--|
C|-------------------|----------------------------------------|
G|-------------------|----------------------------------------|
C|-------------------|----------------------------------------|

D|------------------|----------------------------------------|
A|------------------|----------------------------------------|
F|--8--11--9--11--x4|--8--9--11--9--11--12--11--12--14--16*--|
C|------------------|----------------------------------------|
G|------------------|----------------------------------------|
C|------------------|----------------------------------------|

D|-----------------|--5-----------5--8--5-----------5--8/11--8-|
A|--8--12--10--12--|-----7-----7-----------7-----7-------------|
F|-----------------|--------8-----------------8----------------|
C|-----------------|-------------------------------------------|
G|-----------------|-------------------------------------------|
C|-----------------|-------------------------------------------|

D|-------------8/14--11--------------11--14--|
A|-10------10------------13------13----------|
F|-----11--------------------14--------------|
C|-------------------------------------------|
G|-------------------------------------------|
C|-------------------------------------------|


D|--20--17------17----------------------------------|
A|----------19------19------19----------------------|
F|----------------------20------20--17--20--17------|
C|----------------------------------------------19--|
G|--------------------------------------------------|
C|--------------------------------------------------|

D|-----------------17h20p17------17h20p17-------------------------|
A|-------------19------------19------------19---------------------|
F|------17h20----------------------------------20p17--------------|
C|--19------------------------------------------------19------17~~|
G|--------------------------------------------------------21------|
C|----------------------------------------------------------------|


Rythym During The solo

D|------------------------------------|
A|------------------------------------|
F|------------------------------------|
C|--22-2-11-9-0-7-0-5-0-4-55-1010-99--|
G|--22-2-11-9-0-7-0-5-0-4-55-1010-99--|
C|--22-2-11-9-0-7-0-5-0-4-55-1010-99--|

D|--------------------|
A|--------------------|
F|--------------------|
C|--------------------|
G|--------------------|
C|2---1---5---9---1---| [Tremolo Picked, REALLY quickly, also palm muted]

Bridge

D|-------------------------|-----------------------------|
A|-------------------------|-----------------------------|
F|12-12-12-12-11-11-9-9-9-9|16-16-16-16-14-14-12-12-12-12|
C|-------------------------|-----------------------------|
G|10-10-10-10-9--9--7-7-7-7|14-14-14-14-12-12-10-10-10-10|
C|---------------------[X2]|-------------------------[X2]|[x2]

D|--------------------------------------------------|
A|--------------------------------------------------|
F|--------------------------------------------------|
C|-Play Nothing---22\\22\\22\\77\\10\\99\\----------|
G|----------------22\\22\\22\\77\\10\\99\\----------|
C|----------------22\\22\\22\\77\\10\\99\\----------|


Outro
|------------------------------------------|
|//5~/87\\5~/87\\5~4~7~/8\\----------------|
|------------------------------------------|
|------------------------------------------|
|------------------------------------------|
|------------------------------------------|
            
Hard to play? Try these video lessons and learn fast. | Correct




comments powered by Disqus
↑ Back to top | Tablatures and chords are parodies/interpretations of the original songs. You may use it for private study, scholarship, research or language learning purposes only