» » »

Falling In Reverse, Im Not A Vampire Bass tabs (ver.1)

Artists:  A B C D E F G H I J K L M N O P Q R S T U V W X Y Z # 

Im Not A Vampire Bass tabs (ver.1)

Falling In Reverse Tabs
 Rating:
4/5 (4 votes)
Im Not A Vampire lessons Tabs too difficult? Try these video lessons and learn fast
1
                -------------------------------------------------------------------------------
			     I'M NOT A VAMPIRE - Falling In Reverse.
-------------------------------------------------------------------------------






Tuning: Drop D.





Intro [00:04]

G|----------------------------------------------------------------------------|
D|----------------------------------------------------------------------------|
A|----------------------------------------------------------------------------|
D|--/12\---00-000-000-000--055-555-555-555--588-888-888-888--877-777-777-777--|

G|---------------------------------------------------------------------|
D|---------------------------------------------------------------------|
A|---------------------------------------------------------------------|
D|--00-000-000-000--055-555-555-555--588-888-888-888--877-777-7-7(x8)--|



Verse [00:26]

G|---------------------------------------------------------------------|
D|---------------------------------------------------------------------|
A|---------------------------------------------------------------------|
D|--00-000-000-000--055-555-555-555--588-888-888-888--877-777-777-777--|

G|----------------------------------------------------------------------|
D|----------------------------------------------------------------------|
A|----------------------------------------------------------------------|
D|--000-000-000-000--055-555-555-555--588-888-888-888--877-777-7-7(x8)--|

G|-------------------------------------------------------------|
D|-------------------------------------------------------------|
A|--1-1---3-3---------------------1-1---3-3---0-0---1-1---3-3--|
D|--------------0-0---2-2---3-3--------------------------------|



Chorus [00:57]

G|------------------------------|
D|------------------------------|
A|------------------------------|   [x2]
D|--0(x8)--5(x8)--8(x8)--7(x8)--|

G|----------------------------------------------------------------------|
D|----------------------------------------------------------------------|
A|----------------------------------------------------------------------|
D|--00-000-000-000--055-555-555-555--588-888-888-888--877-777-777-7777--|



Verse [01:28]

G|---------------------------------------------------------------------|
D|---------------------------------------------------------------------|
A|---------------------------------------------------------------------|
D|--00-000-000-000--055-555-555-555--588-888-888-888--877-777-777-777--|

G|----------------------------------------------------------------------|
D|----------------------------------------------------------------------|
A|----------------------------------------------------------------------|
D|--000-000-000-000--055-555-555-555--588-888-888-888--877-777-7-7(x8)--|

G|-------------------------------------------------------------|
D|-------------------------------------------------------------|
A|--1-1---3-3---------------------1-1---3-3---0-0---1-1---3-3--|
D|--------------0-0---2-2---3-3--------------------------------|



Chorus [01:59]

G|------------------------------|
D|------------------------------|
A|------------------------------|   [x2]
D|--0(x8)--5(x8)--8(x8)--7(x8)--|



Bridge [02:20]

G|----------------------------------------------------|
D|----------------------------------------------------|
A|--------5-4-4----------------1-0-0-------3-1-0------|
D|--0-0----------7-5-3-2-3-3-----------2-5-------5-2--|

G|-------------------------------------------------------|
D|-------------------------------------------------------|
A|--------5-4-4------------------------------------------|
D|--0-0-----------777-5-333-2-3-3---8-7-7---777-8-777-5--|

G|----------------------------------------------------------|
D|----------------------------------------------------------|
A|-----------------------3(x8)----------------5(x8)--4(x8)--|
D|--5(x8)--8(x8)--0(x8)---------5(x8)--8(x8)----------------|

G|------------------------------------------------------------------------|
D|------------------------------------------------------------------------|
A|--------------------------------------333-111-000------333-111-000------|
D|--0-0---0-0---0-0---5-5---8-8---7-7---------------555--------------555--|



Chorus [03:18]

G|------------------------------|
D|------------------------------|
A|------------------------------|   [x2]
D|--0(x8)--5(x8)--8(x8)--7(x8)--|

G|-------------------------------------------|
D|-------------------------------------------|
A|-------------------------------------------|
D|--8(x8)--0(x8)--8(x8)--7(x4)--11(x4)--12\--|





| /  slide up
| \  slide down
| h  hammer-on
| p  pull-off
| ~  vibrato
| +  harmonic
| x  Mute note
===============================================================================
            
Submit corrections

comments powered by Disqus
↑ Back to top | Falling In Reverse Bass for Im Not A Vampire. Lyrics for acoustic guitar and electric guitar. 1 Tablatures and chords are parodies/interpretations of the original songs. You may use it for private study, scholarship, research or language learning purposes only