» » »

Im Not A Vampire Tabs (ver.3)

Artists:  A B C D E F G H I J K L M N O P Q R S T U V W X Y Z # 

Im Not A Vampire Tabs (ver.3)

Falling In Reverse
Rating:
0/5 (0 votes)
Tabs too difficult? Try these video lessons and learn fast.
                                                 -------------------------------------------
                                     Im not a vampire-Falling in reverse
                                 -------------------------------------------

Tuning: DropC



Intro
|----------------------------------------------------------------------------|
|----------------------------------------------------------------------------|
|----------------------------------------------------------------------------|
|----22-22-2-22-22-2-2222-77-77-7-77-77-7-7777-1010-1010-10-1010-1010-101010-|
|----22-22-2-22-22-2-2222-77-77-7-77-77-7-7777-1010-1010-10-1010-1010-101010-|
|12\\22-22-2-22-22-2-2222-77-77-7-77-77-7-7777-1010-1010-10-1010-1010-101010-|

|-----------------------------| don't no the intro solo????????????????????
|-----------------------------|
|-----------------------------|
|10-99-99-9-99-99-9-9999------|
|10-99-99-9-99-99-9-9999------|
|10-99-99-9-99-99-9-9999------|

Verse:the same as intro just palm muted.

Pre chorus:
|---------------------------------------------------------------------------|
|---------------------------------------------------------------------------|
|---------------------------------------------------------------------------|
|--55-77-22-44-55--55-77-44-55557777----------------------------------------|
|--33-55-22-44-55--33-55-22-33335555----------------------------------------|
|--xx-xx-22-44-55--xx-xx-xx-xxxxxxxx----------------------------------------|

Chorus:Strum
|-------------------------|
|-------------------------|
|-------------------------|
|-2--7--10--9-------------|
|-2--7--10--9-------------|
|-2--7--10--9-------------|


Guitar solo:????
Bridge: after solo
|-------------------------------x2-------------------|----------------------|
|----------------------------------------------------|----------------------|
|1212121211119999|16161616141412121212|111211/1212\11|----------------------|
|----------x2----|------------x2------|--------------|----------------------|
|10101010 9 97777|14141414121210101010|9 109/-1010\9-|----------------------|
|----------------------------------------------------|----------------------|

After playing the riff above 2x play this.
|---------------------------------------------------------------------------|
|---------------------------------------------------------------------------|
|11111111--88888------------------------------------------------------------|
|----------------22\\22\\22\\77\\10\\99\\xxxxxx-----------------------------|
|9 9 9 9 --66666-22\\22\\22\\77\\10\\99\\xxxxxx-----------------------------|
|----------------22\\22\\22\\77\\10\\99\\xxxxxx-----------------------------|


Outro solo:
|------------------------------------------|
|//5~/87\\5~/87\\5~4~7~/8\\----------------|
|------------------------------------------|
|------------------------------------------|
|------------------------------------------|
|------------------------------------------|

Song Setup:
Intro And Solo1
Verse
Pre Chorus
Chorus
Intro Riff Again
Verse
Pre Chorus
Chorus
Solo2
Bridge
Chorus
Outro
            
Tabs too difficult? Try these video lessons and learn fast.


comments powered by Disqus
↑ Back to top | Tablatures and chords are parodies/interpretations of the original songs. You may use it for private study, scholarship, research or language learning purposes only