» » »

Everything Everything, Schoolin Bass tabs (ver.2)

Artists:  A B C D E F G H I J K L M N O P Q R S T U V W X Y Z # 

Schoolin Bass tabs (ver.2)

Everything Everything Tabs
 Rating:
4/5 (4 votes)
Schoolin lessons Tabs too difficult? Try these video lessons and learn fast
                



All tabs by Pedro Zappa
-----------------------------------------------------------------------------
-----------------------------------------------------------------------------


3. Schoolin'


Intro/Verse

G||---------------------|--------------------||  x3
D||-7--9--10------------|--------------------||
A||---------------------|--------------------||
E||---------------------|--------------------||
    i    i    i    i      i    i    i    i

G||----------------------|--------------------|
D||-7--9--10----------9--|--------------------|
A||--------------------10|-7-------77---------|
E||----------------------|--------------------|
    i    i    i    i       i    i    i    i
G||--------------------|--------------------||  x2
D||--------------------|--------------------||
A||-5------55----------|-8------8-----------||
E||--------------------|--------------------||
    i    i    i    i     i    i    i    i

Chorus 1

G||--------------------|--------------------|
D||--------------------|-5------------------|
A||-6------------------|--------------------|
E||--------------------|--------------------|
    i    i    i    i     i    i    i    i
G||--------------------|--------------------------------|
D||-8------------------|-10.10.10.12---10.10-10.12\-----|
A||--------------------|--------------------------------|
E||--------------------|--------------------------------|
    i    i    i    i     i           i       i      i
G||--------------------|--------------------|
D||--------------------|-5---------------7--|
A||-6------------------|--------------------|
E||--------------------|--------------------|
    i    i    i    i     i    i    i    i
G||----------------------12-|----------------------------------------|
D||-8---------------10.12---|-10.10.10.12---10.10-10.12---12.12.12.12|
A||-------------------------|----------------------------------------|
E||-------------------------|----------------------------------------|
    i    i    i     i         i           i       i       i
G||---------------------------|--------------------|
D||-12.13.12.10-5-------5--3--|--------------------|
A||---------------6-----------|--------------------|
E||---------------------------|-3------------------|
    i           i    i    i     i    i    i    i
G||--------------------|---------------------------|
D||--------------------|----------------12.12.12.12|
A||------------------0-|-3335---33-35--------------|
E||-6------------------|---------------------------|
    i    i    i    i     i    i    i    i
G||---------------------------|--------------------|
D||-12.13.12.10-5-------5--3--|--------------------|
A||---------------6-----------|--------------------|
E||---------------------------|-3---------------x5-|
    i           i    i    i     i    i    i    i
G||--------------------|--------------------------|
D||------------------5-|---------------10.12.10---|
A||----------------35--|-3335---33-35----------12\|
E||-6------------------|--------------------------|
    i    i    i    i     i    i    i      i

Verse 2

G||----------------------|--------------------|
D||-7--9--10----------9--|--------------------|
A||--------------------10|-7-------77---------|
E||----------------------|--------------------|
    i    i    i    i       i    i    i    i
G||--------------------|--------------------||  x2
D||--------------------|--------------------||
A||-5------55----------|-8------8-----------||
E||--------------------|--------------------||
    i    i    i    i     i    i    i    i
G||--------------------|--------------------|
D||--------------------|--------------------|
A||-0--2--3----------2-|--------------------|
E||-------------------3|-0------00----------|
    i    i    i    i     i    i    i    i
G||--------------------|--------------------|
D||--------------------|-3--5---7-----------|
A||-5------55--------3-|--------------------|
E||--------------------|--------------------|
    i    i    i    i     i    i    i    i
G||--------------------|--------------------|
D||--------------------|--------------------|
A||-0--2--3----------2-|--------------------|
E||-------------------3|-0------00----------|
    i    i    i    i     i    i    i    i
G||--------------------|--------------------||
D||--------------------|--------------------||
A||-5------55----------|--------------------||
E||--------------------|-1------1-----------||
    i    i    i    i     i    i    i    i

Chorus 2

G||--------------------|--------------------|
D||--------------------|-5---------------7--|
A||-6------------------|--------------------|
E||--------------------|--------------------|
    i    i    i    i     i    i    i    i
G||--------------------|--------------------------------|
D||-8------------------|-10.10.10.12---10.10-10.12\-----|
A||--------------------|--------------------------------|
E||--------------------|--------------------------------|
    i    i    i    i     i           i       i      i
G||--------------------|--------------------|
D||--------------------|-5---------------7--|
A||-6------------------|--------------------|
E||--------------------|--------------------|
    i    i    i    i     i    i    i    i
G||---------------------12-|----------------------------------------|
D||-8--------------10.12---|-10.10.10.12---10.10-10.12---12.12.12.12|
A||------------------------|----------------------------------------|
E||------------------------|----------------------------------------|
    i    i    i    i         i           i       i       i
G||---------------------------|--------------------|
D||-12.13.12.10-5-------5--3--|--------------------|
A||---------------6-----------|--------------------|
E||---------------------------|-3---------------5--|
    i           i    i    i     i    i    i    i
G||--------------------|---------------------------|
D||--------------------|----------------12.12.12.12|
A||--------------------|-3335---33-35--------------|
E||-6------------------|---------------------------|
    i    i    i    i     i    i    i    i
G||---------------------------|--------------------|
D||-12.13.12.10-5-------5--3--|--------------------|
A||---------------6-----------|--------------------|
E||---------------------------|-3---------------x5-|
    i           i    i    i     i    i    i    i
G||--------------------|--------------------|
D||------------------5-|--------------------|
A||----------------35--|-3335---33-35-------|
E||-6------------------|--------------------|
    i    i    i    i     i    i    i    i
G||--------------------|---------------------------|
D||--------------------|---------------------------|
A||--------------------|---------------------------|
E||--------------------|----------------15.15.15.15|
    i    i    i    i     i    i    i    i
G||--------------------|
D||--------------------|
A||--------------------|
E||-0------------------|
    i    i    i    i    

Outro

G||------------------------|--------------7-9--7|
D||-----------10.9.10------|-----------9--------|
A||-0--------------------7-|--------------------|
E||------------------------|--------------------|
    i    i    i        i     i    i    i    i
G||-------------4------|--------------------|
D||-9--5------45-----2-|--2---2----9-9--75--|
A||--------------------|------------------7-|
E||--------------------|--------------------|
    i    i    i    i     i    i    i    i
G||------------------------|--------------7-9--7|
D||-7---------10.9.10------|-----------9--------|
A||----------------------7-|--------------------|
E||------------------------|--------------------|
    i    i    i        i     i    i    i    i
G||-------------4------|--------------------|
D||-9--5------45-----2-|--2---2----9-9--75--|
A||--------------------|------------------7-|
E||--------------------|--------------------|
    i    i    i    i     i    i    i    i
---Vocals

G||------------------------|--------------7-9--7|
D||-7---------10.9.10------|-----------9--------|
A||----------------------7-|--------------------|
E||------------------------|--------------------|
    i    i    i        i     i    i    i    i
G||-------------4------|--------------------|
D||-9--5------45-----2-|--2---2----9-9--75--|
A||--------------------|------------------7-|
E||--------------------|--------------------|
    i    i    i    i     i    i    i    i
G||------------------------|--------------7-9--7|
D||-7---------10.9.10------|-----------9--------|
A||----------------------7-|--------------------|
E||------------------------|--------------------|
    i    i    i        i     i    i    i    i
G||-------------4------|--------------------|
D||-9--5------45-----2-|--2---2-------------|
A||--------------------|-----------2-2--0---|
E||--------------------|-----------------30-|
    i    i    i    i     i    i    i    i
---

G||------------------------|--------------7-9--7|
D||-----------10.9.10------|-----------9--------|
A||-0--------------------7-|--------------------|
E||------------------------|--------------------|
    i    i    i        i     i    i    i    i
G||-------------4------|--------------------|
D||-9--5------45-----2-|--2---2----9-9--75--|
A||--------------------|------------------7-|
E||--------------------|--------------------|
    i    i    i    i     i    i    i    i

G||------------------------|--------------7-9--7|
D||-7-------9-10.9.--------|-----------9--------|
A||----------------10--9-7\|------7-------------|
E||------------------------|-------0------------|
    i    i    i        i     i    i    i    i
G||-------------4------|--------------------|
D||-9--5------45-----2-|--2---2----9-9--75--|
A||--------------------|------------------7-|
E||--------------------|--------------------|
    i    i    i    i     i    i    i    i
---Vocals

G||------------------------|--------------7-9--7|
D||-7---------10.9.10------|-----------9--------|
A||----------------------7-|--------------------|
E||------------------------|--------------------|
    i    i    i        i     i    i    i    i
G||-------------4------|--------------------|
D||-9--5------45-----2-|--2---2----9-9--75--|
A||--------------------|------------------7-|
E||--------------------|--------------------|
    i    i    i    i     i    i    i    i

G||------------------------|--------------7-9--7|
D||-7-------9-10.9.--------|-----------9--------|
A||----------------10--9-7\|------7-------------|
E||------------------------|-------0------------|
    i    i    i        i     i    i    i    i
G||-------------4--7---|--------------------|
D||-9--5------45-----2-|--2---2-------------|
A||--------------------|-----------2-2--0---|
E||--------------------|-----------------30-|
    i    i    i    i     i    i    i    i


-----------------------------------------------------------------------------
-----------------------------------------------------------------------------
            
Submit corrections

comments powered by Disqus
↑ Back to top | Everything Everything Bass for Schoolin. Lyrics for acoustic guitar and electric guitar. Tablatures and chords are parodies/interpretations of the original songs. You may use it for private study, scholarship, research or language learning purposes only