» » »

Everything Everything, My Kz Ur Bf Bass tabs (ver.1)

Artists:  A B C D E F G H I J K L M N O P Q R S T U V W X Y Z # 

My Kz Ur Bf Bass tabs (ver.1)

Everything Everything Tabs
Rating:
0/5 (0 votes)
My Kz Ur Bf lessons Tabs too difficult? Try these video lessons and learn fast
                



-----------------------------------------------------------------------------
-----------------------------------------------------------------------------


1. MY KZ, UR BF


Intro

G||---------------------|-----------------------|
D||----------------6-6--|-----------------------|
A||-----------------3-3-|-1-1----86-----6---6---|
E||-1-1---3-4---4-------|-----------------------|
    i    i    i    i      i    i      i    i
G||---------------------|---------------------|
D||----------------6-6--|---------------------|
A||-----------------3-3-|-1-1----86---6---568-|
E||-1-1---3-4---4-------|---------------------|
    i    i    i    i      i    i    i    i
G||---------------------|-----------------------|
D||----------------6-6--|-----------------------|
A||-----------------3-3-|-1-1----86-----6---6---|
E||---1--1-3--4--4------|-----------------------|
    i    i    i    i      i    i      i    i
G||---------------------|----------------------|
D||----------------6-6--|---------1------------|
A||-----------------3-3-|-1-1---13----1---3----|
E||-1-1---3--4---4------|----------------------|
    i    i    i    i      i    i    i    i
---

G||---------------------|---5----5------------|
D||---------------------|---------------------|
A||-3--3-35-6----6-653--|-------------3--1--3-|
E||---------------------|---------------------|
    i    i    i    i      i    i    i    i
 
Verse 1

G||--------------------|--------------------|
D||-------8--------6---|-------8--------6---|
A||-4-------8--8-------|-4-------8--8-------|
E||--------------------|--------------------|
    i    i    i    i     i    i    i    i
G||--------------------|--------------------|
D||-------8----6-------|-------8----6--6----|
A||-4-------8------3---|-4-------8------863-|
E||--------------------|--------------------|
    i    i    i    i     i    i    i    i

G||--------------------|--------------------|
D||-------8--------6---|-------8--------6---|
A||-4-------8--8-------|-4-------8--8-------|
E||--------------------|--------------------|
    i    i    i    i     i    i    i    i
G||------------------5-|--------------------|
D||-------8----6---6---|-------8----6--6----|
A||-4-------8-----8-8--|-4-------8------863-|
E||--------------------|--------------------|
    i    i    i    i     i    i    i    i

Pre-Chorus 1

G||--------------------|--------------------|
D||----------------3-3-|----------------3-5-|
A||-4--4--4-4--4--4-4-4|-5-5---5-5--5--5----|
E||--------------------|--------------------|
    i    i    i    i     i    i    i    i
G||----------------5-5-|------53------------|
D||-6-6---6-6--6--6-6-6|-5-5----65--5-------|
A||--------------------|--------------------|
E||--------------------|--------------------|
    i    i    i    i     i    i    i    i

Chorus 1

G||---------------------|-----------------------|
D||----------------6-6--|-----------------------|
A||-----------------3-3-|-1-1----86-----6---6---|
E||-1-1---3-4---4-------|-----------------------|
    i    i    i    i      i    i      i    i
G||---------------------|---------------------|
D||----------------6-6--|---------------------|
A||-----------------3-3-|-1-1----86---6---568-|
E||-1-1---3-4---4-------|---------------------|
    i    i    i    i      i    i    i    i
G||---------------------|-----------------------|
D||----------------6-6--|-----------------------|
A||-----------------3-3-|-1-1----86-----6---6---|
E||---1--1-3--4--4------|-----------------------|
    i    i    i    i      i    i      i    i
G||---------------------|----------------------|
D||----------------6-6--|---------1------------|
A||-----------------3-3-|-1-1---13----1---3----|
E||-1-1---3--4---4------|----------------------|
    i    i    i    i      i    i    i    i
---

G||--------------------|--------------------|
D||-----------------1--|--------------------|
A||-3------------------|----------------1--3|
E||--------------------|--------------------|
    i    i    i    i     i    i    i    i

Verse 2

G||--------------------|--------------------|
D||--------------------|--------------------|
A||-4-----1------------|-4-----1------------|
E||---------1--1--x4---|---------1--1--14---|
    i    i    i    i     i    i    i    i
G||--------------------|--------------------|
D||------------3-------|------------3--x31--|
A||-4-----1--------3---|-4-----1----------3-|
E||---------1----------|---------1----------|
    i    i    i    i     i    i    i    i
G||--------------------|--------------------|
D||--------------------|--------------------|
A||-4-----1------------|-4-----1-------x1-3-|
E||---------1--1--x4---|---------1--1-------|
    i    i    i    i     i    i    i    i
G||--------------------|--------------------|
D||--------------------|------------3--x31--|
A||-4------------------|-4-----1----------3-|
E||-------4-1--1--x4---|---------1----------|
    i    i    i    i     i    i    i    i

Pre-Chorus 2

G||--------------------|--------------------|
D||----------------3-3-|----------------3-3-|
A||-4--4--4-4--4--4-4-4|-5-5---5-5--5--5-5--|
E||--------------------|--------------------|
    i    i    i    i     i    i    i    i
G||----------------5-5-|---55-53------------|
D||-6-6---6-6--6--6-6-6|-5------65--5-------|
A||--------------------|--------------------|
E||--------------------|--------------------|
    i    i    i    i     i    i    i    i

Chorus 2

G||---------------------|-----------------------|
D||----------------6-6--|-----------------------|
A||-----------------3-3-|-1-1----86-----6---6---|
E||-1-1---3-4---4-------|-----------------------|
    i    i    i    i      i    i      i    i
G||---------------------|---------------------|
D||----------------6-6--|---------1---1---013-|
A||-----------------3-3-|-1-1---13------------|
E||-1-1---3-4---4-------|---------------------|
    i    i    i    i      i    i    i    i
G||---------------------|-----------------------|
D||----------------6-6--|-----------------------|
A||---3-------------3-3-|-1-1----86-----6---6---|
E||------1-3--4--4------|-----------------------|
    i    i    i    i      i    i      i    i
G||---------------------|----------------------|
D||----------------6----|---------1---3---5----|
A||-----------------32--|-1-1---13-------------|
E||-1-1---3--4---4------|----------------------|
    i    i    i    i      i    i    i    i

Interlude

G||--------------------|--------------------|
D||-----------------1--|--------------------|
A||-3------------------|--------------------|
E||--------------------|--------------------|
    i    i    i    i     i    i    i    i
G||--------------------|--------------------||
D||-----------------1--|--------------------||
A||-3------------------|----------------1--1||
E||--------------------|--------------------||
    i    i    i    i     i    i    i    i
                                              x2
G||--------------------|--------------------||
D||------------------1-|--------------------||
A||-3-----------1------|----------------1--1||
E||----------------3---|--------------------||
    i    i    i    i     i    i    i    i
G||--------------------|--------------------|
D||------------------1-|------3----5--------|
A||-3-----------1------|----------------1--1|
E||----------------3---|--------------------|
    i    i    i    i     i    i    i    i
G||--------------------|--------------------|
D||------------------1-|--------35----------|
A||-3-----------1------|--------------------|
E||----------------3---|--------------------|
    i    i    i    i     i    i    i    i

Chorus 3

G||---------------------|-----------------------|
D||----------------6-6--|-----------------------|
A||-----------------3-3-|-1-1----86-----6---6---|
E||-1-1---3-4---4-------|-----------------------|
    i    i    i    i      i    i      i    i
G||---------------------|---------------------|
D||----------------6-6--|---------1---1---013-|
A||-----------------3-3-|-1-1---13------------|
E||-1-1---3-4---4-------|---------------------|
    i    i    i    i      i    i    i    i
G||---------------------|-----------------------|
D||----------------6-6--|-----------------------|
A||---3-------------3-3-|-1-1----86-----6---6---|
E||------1-3--4--4------|-----------------------|
    i    i    i    i      i    i      i    i
G||---------------------|----------------------|
D||----------------6----|---------1------------|
A||-----------------32--|-1-1---13----1--------|
E||-1-1---3--4---4------|-----------------3----|
    i    i    i    i      i    i    i    i
---

G||---------------------|-----------------------|
D||----------------6-6--|-----------------------|
A||-----------------3-3-|-1-1----86-----6---6---|
E||-1-1---3-4---4-------|-----------------------|
    i    i    i    i      i    i      i    i
G||---------------------|---------------------|
D||----------------6-6--|---------1---1---013-|
A||-----------------3-3-|-1-1---13------------|
E||-1-1---3-4---4-------|---------------------|
    i    i    i    i      i    i    i    i
G||---------------------|-----------------------|
D||----------------6-6--|-----------------------|
A||---3-------------3-3-|-1-1----86-----6---6---|
E||------1-3--4--4------|-----------------------|
    i    i    i    i      i    i      i    i
G||---------------------|----------------------|
D||----------------6-6--|---------1---3---6----|
A||-----------------3-3-|-1-1---13-------------|
E||-1-1---3--4---4------|----------------------|
    i    i    i    i      i    i    i    i


-----------------------------------------------------------------------------
-----------------------------------------------------------------------------
            

comments powered by Disqus
↑ Back to top | Everything Everything Bass for My Kz Ur Bf. Lyrics for acoustic guitar and electric guitar. Tablatures and chords are parodies/interpretations of the original songs. You may use it for private study, scholarship, research or language learning purposes only