» » »

Everything Everything, Suffragette Suffragette Tabs (ver.1)

Artists:  A B C D E F G H I J K L M N O P Q R S T U V W X Y Z # 

Suffragette Suffragette Tabs (ver.1)

Everything Everything Tabs
Rating:
2/5 (1 vote)
Suffragette Suffragette lessons Tabs too difficult? Try these video lessons and learn fast
                ---------------------------------------------------------------
---------------------------------------------------------------

Song name: Suffragette Suffragette
Tuning: Standard (EADGBe)

I'm not so sure about some parts but I think this is more accurate than the other tab 
up.
Cheers, Tom x

Intro/Verse

Light palm muted
e|----------------------------------|
B|----------------------------------|
G|-----------------------6-6-6-6----|
D|-7-7-7-7-7-4-4-4-4-4-4------------| x How ever many it is
A|----------------------------------|
E|----------------------------------|

e|-------------------------------------------------------------------------------------|
B|----10-12-------10-12----10-12-------------14-14-14-14-12-12-12-12---12-14-12--------|
G|-11-------11-11-------11-------11-11-11-11------------------------------------14-13--|
D|-------------------------------------------------------------------------------------|
A|-------------------------------------------------------------------------------------|
E|-------------------------------------------------------------------------------------|

e|-------12----------12-------12-------------------------------------------------------|
B|----10-12-------10-12----10-12-------------14-14-14-14-12-12-12-12---12-14-12--------|
G|-11-------11-11-------11-------11-11-11-11------------------------------------14-13--|
D|-------------------------------------------------------------------------------------|
A|-------------------------------------------------------------------------------------|
E|-------------------------------------------------------------------------------------|


Chorus

e|------------------------------------------------------------------------|
B|---------------------------------------------5-5-5----------------------|
G|-------------6-6-6-4-4-4-2-2-4-4-------------------4-4-4-2-2-4-4--------|
D|-------4-4-4---------------------------2-2-2----------------------------| x2
A|-5-5-5---------------------------4-4-4----------------------------------|
E|------------------------------------------------------------------------|

The Riff

e|------------------------------------------------------------|
B|------------------------------------------------------------|
G|------------------------------------------------------------|
D|------------------------------------------------------------| x4
A|---------------------------------------9-7-6----------------|
E|-9--0-0-2--0-0-4p0-4p0-5--0-0-07--0-0-----------------------|

Verse again

Light palm muted
e|----------------------------------|
B|----------------------------------|
G|-----------------------6-6-6-6----|
D|-7-7-7-7-7-4-4-4-4-4-4------------| x How ever many it is
A|----------------------------------|
E|----------------------------------|

e|-----------------------------------------------------------------------------------------------|
B|----10-12-------10-12----10-12------------14-14-14-14-12-12-12-12---12-14-12-------------------|
G|-11-------11-11-------11------11-11-11-11------------------------------------14-13-14-16-14-13-|
D|-----------------------------------------------------------------------------------------------|
A|-----------------------------------------------------------------------------------------------|
E|-----------------------------------------------------------------------------------------------|

e|-------12----------12-------12-----------------------------------------------------------------|
B|----10-12-------10-12----10-12-------------14-14-14-14-12-12-12-12---12-14-12------------------|
G|-11-------11-11-------11-------11-11-11-11------------------------------------14-13-14-16-14-13|
D|-----------------------------------------------------------------------------------------------|
A|-----------------------------------------------------------------------------------------------|
E|-----------------------------------------------------------------------------------------------|

Chorus

e|------------------------------------------------------------------------|
B|---------------------------------------------5-5-5----------------------|
G|-------------6-6-6-4-4-4-2-2-4-4-------------------4-4-4-2-2-4-4--------|
D|-------4-4-4---------------------------2-2-2----------------------------| x2
A|-5-5-5---------------------------4-4-4----------------------------------|
E|------------------------------------------------------------------------|

The Riff

e|------------------------------------------------------------|
B|------------------------------------------------------------|
G|------------------------------------------------------------|
D|------------------------------------------------------------| x4
A|---------------------------------------9-7-6----------------|
E|-9--0-0-2--0-0-4p0-4p0-5--0-0-07--0-0-----------------------|

Chorus

This time the chorus is playing an octave higher, so:

e|----------------------------------------------------|
B|-------------------14-14-14-12-12-12-10-10-12-12----|
G|----------11-11-11----------------------------------|
D|-12-12-12-------------------------------------------|
A|----------------------------------------------------|
E|----------------------------------------------------|

e|-----------------12-12-12---------------------------|
B|--------------------------12-12-12-10-10-12-12------|
G|----------9-9-9-------------------------------------|
D|-11-11-11-------------------------------------------|
A|----------------------------------------------------|
E|----------------------------------------------------|  x4

Bridge

Light palm muted
e|----------------------------------|
B|----------------------------------|
G|-----------------------6-6-6-6----|
D|-7-7-7-7-7-4-4-4-4-4-4------------| x2
A|----------------------------------|
E|----------------------------------|

e|---------------------------------------------------------------|
B|-------------------------------------------------------10-12---|
G|-7-7-7-7-7-6-6-6-6-6-6---------7-7-7-7-7-7-6-6-6-6--11---------|
D|-----------------------7-7-7-7---------------------------------|
A|---------------------------------------------------------------|
E|---------------------------------------------------------------|

e|-------------------------------------------------------------------------------------|
B|----10-12-------10-12----10-12-------------14-14-14-14-12-12-12-12---12-14-12--------|
G|-11-------11-11-------11-------11-11-11-11------------------------------------14-13--|
D|-------------------------------------------------------------------------------------|
A|-------------------------------------------------------------------------------------|
E|-------------------------------------------------------------------------------------|

e|-------------------12--------------------------------------------------------------------------|
B|----10-12-------10-12----10-12------------14-14-14-14-12-12-12-12---12-14-12-------------------|
G|-11-------11-11-------11------11-11-11-11------------------------------------14-13-14-16-14-13-|
D|-----------------------------------------------------------------------------------------------|
A|-----------------------------------------------------------------------------------------------|
E|-----------------------------------------------------------------------------------------------|

Outro

e|-------------------|
B|--/14-12-----------|
G|---------14-13-----|
D|-------------------| x4
A|-------------------|
E|-------------------|
            
Submit corrections

comments powered by Disqus
↑ Back to top | Everything Everything Tabs for Suffragette Suffragette. Lyrics for acoustic guitar and electric guitar. Tablatures and chords are parodies/interpretations of the original songs. You may use it for private study, scholarship, research or language learning purposes only