» » »

Everything Everything, Schoolin Tabs (ver.1)

Artists:  A B C D E F G H I J K L M N O P Q R S T U V W X Y Z # 

Schoolin Tabs (ver.1)

Everything Everything Tabs
Rating:
3/5 (2 votes)
Hard to play? Try these video lessons and learn fast.
                Everything Everything
Rhythm Guitar/lyrics

Brother you look like the Taj Mahal
one colossal dome above you and the smell of something other,
a pillar and a scimitar
a little...

e|--------------------------------------------------------------------------|
B|--------------------------------------------------------------------------|
G|--------------------------------------------------------------------------|
D|------9--9--9-----7--10---------------------------------------------------|
A|--------------------------------------------------------------------------|
E|--------------------------------------------------------------------------|

Yes I miss you like a formless hide
 stretching over me and dangled from the coastguard in a chopper
the scaffold of me all awry
a little...

e|--------------------------------------------------------------------------|
B|--------------------------------------------------------------------------|
G|--------------------------------------------------------------------------|
D|------9--9--9-----7--10---------------------------------------------------|
A|--------------------------------------------------------------------------|
E|--------------------------------------------------------------------------|

Broke your shoulder on the library steps
hanging round there in the dark just doing nothing or whatever
What do you mean you saw the stars?
You little...

e|--------------------------------------------------------------------------|
B|--------------------------------------------------------------------------|
G|--------------------------------------------------------------------------|
D|------9--9--9-----7--10---------------------------------------------------|
A|--------------------------------------------------------------------------|
E|--------------------------------------------------------------------------|


I could write it in a murder font
I could say it in a way that would be lying or whatever
I don't want them to tell us apart!

e|---------------x----------------------------------------------------------|
B|---------------x----------------------------------------------------------|
G|---------------x----------------------------------------------------------|
D|---------------x----------------------------------------------------------|
A|---------------x----------------------------------------------------------|
E|---------------x----------------------------------------------------------|



You say that Im an overlord? I've got myself a fire hydrant, with more tyrant,
in watery blasts, than all of my past!
You seen me on the bridge a lot. But I never leapt over, the pent upper
My number is up, my number is up
But infinite and joyless little high fives are singing "praise the lord"
and "pitter patter this schooling? Is this schooling?" and "you matter not, and you 
matter not"
And is it, the flogging of the Flintstone - that I'm supposed to be?
The cerebellum get schoolin', and no schoolin'
 the drummer goes on, the drama goes on


And I don't wanna make a scene - I don't wanna think about the 3rd world hunger or whatever
Cos thinking always comes across
a little...

e|--------------------------------------------------------------------------|
B|--------------------------------------------------------------------------|
G|--------------------------------------------------------------------------|
D|------9--9--9-----7--10---------------------------------------------------|
A|--------------------------------------------------------------------------|
E|--------------------------------------------------------------------------|


There's a meeting of the worlds tonight - right above my head a miracle the sun erupt forever
I barely ever raise my eyes
a little...

e|--------------------------------------------------------------------------|
B|--------------------------------------------------------------------------|
G|--------------------------------------------------------------------------|
D|------9--9--9-----7--10---------------------------------------------------|
A|--------------------------------------------------------------------------|
E|--------------------------------------------------------------------------|


(Teach him how to hold!)

And oh I wanna make the peace - and god I gotta be on the train past the ruins the wall 
and the druids oh please

I'm whining like a braking bus - maybe I can sit here and do nothing clever with a laser
I'm not about to open up!

e|---------------x----------------------------------------------------------|
B|---------------x----------------------------------------------------------|
G|---------------x----------------------------------------------------------|
D|---------------x----------------------------------------------------------|
A|---------------x----------------------------------------------------------|
E|---------------x----------------------------------------------------------|


You say that Im an overlord? I've got myself a fire hydrant, with more tyrant,
in watery blasts, than all of my past!
You seen me on the bridge a lot. But I never leapt over, the pent upper
My number is up, my number is up
But infinite and joyless little high fives are singing "praise the lord"
and "pitter patter this schooling? Is this schooling?" and "you matter not, and you 
matter not"
And is it, the flogging of the Flintstone that I'm supposed to be?
The cerebellum get schoolin', and no schoolin'
 the drummer goes on, the drama goes on

The drummer goes on, the drama goes on
my number is up, my number is up

(This is roughly what it is played just mess around a bit to try and figure it out.But 
these are the exact Notes he plays.
Repeat for as long as he plays it.)

e|---12----10----10----10-----12----10----10----14----10----10----12--------|
B|---12----12----12----12-----12----12----12----12----12----12----12--------|
G|--------------------------------------------------------------------------|
D|--------------------------------------------------------------------------|
A|--------------------------------------------------------------------------|
E|--------------------------------------------------------------------------|


Earth, I take a long time, to learn about the big one
Gorilla limb swipe and beat, and I learn nil about
Earth.
Remember how men, would understand the heavens
but leaving those streetlights on
You can't see nothing there

(Play till Earth)

e|---12----10----10----10-----12----10----10----14----10----10----12--------|
B|---12----12----12----12-----12----12----12----12----12----12----12--------|
G|--------------------------------------------------------------------------|
D|--------------------------------------------------------------------------|
A|--------------------------------------------------------------------------|
E|--------------------------------------------------------------------------|

So learn me anything good

Teach me something that works, I take a long time, to learn about the big one - Gorilla 
limb swipe and beat, and I learn dick about Earth.
Remember good men, would understand the heavens
and leaving those streetlights on - a ghost dark hemisphere Earth.
I take a long time, to learn about the big one
Gorilla limb swipe and beat, and I learn dick about
Earth.
Remember good man, you understand the heavens - but leaving those streetlights on?

_____________________________________________________________________________

Please rate and feel free to make some comments, suggestions and/or corrections.
            

comments powered by Disqus
↑ Back to top | Everything Everything Tabs for Schoolin. Lyrics for acoustic guitar and electric guitar. Tablatures and chords are parodies/interpretations of the original songs. You may use it for private study, scholarship, research or language learning purposes only