» » »

Eraserheads, Fruit Cake Bass tabs (ver.3)

Artists:  A B C D E F G H I J K L M N O P Q R S T U V W X Y Z # 

Fruit Cake Bass tabs (ver.3)

Eraserheads Tabs
 Rating:
4/5 (4 votes)
Fruit Cake lessons Tabs too difficult? Try these video lessons and learn fast
                Fruitcake
Tuning: Half-step Down



CHORUS:
    D   A   Bm  A   G     Bb-C-D     A
G|------------------------------------------------|
D|------7~--9~--7~--5~--8-10-10/12---5~-----------|
A|--5~--------------------------------------------|
E|------------------------------------------------|

    D   A   Bm  A   G          A
G|------------------------------------------------|
D|------------------------------------------------|
A|--5~--4~--2~------------------------------------|
E|--------------5~--3~-----3-4-5~-----------------|



INTERLUDE:
     	D	C	G
G|------------------------------------------------|
D|------------------------------------------------|(X2)
A|------55------33--------------------------------|
E|----------------------3333----------------------|



VERSE:
    D   A   Bm  A   G  F#m  Em    A
G|------------------------------------------------|
D|------------------------------------------------|
A|--5---------------------------------------------|
E|------5---7---5---3---2---0-2-3-5---------------|

    D   A   Bm  A   G  F#m  Em A
G|------------------------------------------------|
D|------------------------------------------------|
A|--5-------------------------------2-4-5-2-------|
E|------5---7---5---3---2---0-2-3-5---------------|



CHORUS:
    D   A   Bm  A   G     Bb-C-D  A
G|------------------------------------------------|
D|------------------------------------------------|
A|--5---------------------1-3-5-------------------|
E|-------5---7---5---3------------5---------------|

    D   A   Bm  A   G      A
G|------------------------------------------------|
D|------------------------------------------------|
A|--5---------------------------------------------|
E|------5---7---5---3333---5555-------------------|



BRIDGE:
    E            D
G|------------------------------------------------|
D|------------------------------------------------|(X4)
A|--77777777-----555555555------------------------|
E|------------------------------------------------|

    E		 D
G|------------------------------------------------|
D|------------------------------------------------|(X8)
A|--7--7--7--7---5--5-----------------------------|
E|---------------------54--5-7--------------------|



ADLIB:
    F      G      D
G|------------------------------------------------|
D|------------------------------------------------|(X2)
A|----------------5555555555----------------------|
E|--11111--33333----------------------------------|

    F      G      D      C
G|------------------------------------------------|
D|------------------------------------------------|(X2)
A|----------------55555--3~-----------------------|
E|--11111--33333----------------------------------|



BRIDGE:
    Bb    	C                   Bb          A
G|--------------------------|    |--------------------------|
D|--------------------------|(x3)|--------------------------|
A|--------------------------|    |--------------------------|
E|--6~----------8~----------|    |--6~----------5~----------|



VERSE:
    D   A   Bm  A   G  F#m  Em    A
G|------------------------------------------------|
D|------------------------------------------------|
A|--5---------------------------------------------|
E|------5---7---5---3---2---0-2-3-5---------------|

    D   A   Bm  A   G  F#m  Em A
G|------------------------------------------------|
D|------------------------------------------------|
A|--5-------------------------------2-4-5-2-------|
E|------5---7---5---3---2---0-2-3-5---------------|



CHORUS:
    D   A   Bm  A   G     Bb-C-D  A
G|------------------------------------------------|
D|------------------------------------------------|
A|--5---------------------1-3-5-------------------|
E|-------5---7---5---3------------5---------------|

    D   A   Bm  A   G     A      D~
G|------------------------------------------------|
D|------------------------------------------------|
A|--5----------------------------5~---------------|
E|------5---7---5---3~-3~-5~-5~-------------------|


| /  slide up
| \  slide down
| h  hammer-on
| p  pull-off
| ~  vibrato
| +  harmonic
| x  Mute note
===============================================================================
            
Submit corrections

comments powered by Disqus
↑ Back to top | Eraserheads Bass for Fruit Cake. Lyrics for acoustic guitar and electric guitar. Tablatures and chords are parodies/interpretations of the original songs. You may use it for private study, scholarship, research or language learning purposes only