» » »

Eraserheads, Fruit Cake Tabs (ver.1)

Artists:  A B C D E F G H I J K L M N O P Q R S T U V W X Y Z # 

Fruit Cake Tabs (ver.1)

Eraserheads Tabs
 Rating:
4/5 (6 votes)
Fruit Cake lessons Tabs too difficult? Try these video lessons and learn fast
                Fruit Cake by Eraserheads
Cell #: 09215059149

I took two weeks bago ko natipa ito. Nirecord ko sa aming VHS ang music video nito
para mapanood ko ung guitar solo ni raymund. Kung may makita man  kayong mali, text
nyo na lang ako o mag-email. Keep on supporting Eraserheads!

Legend:
s=slide
f=full or bend
vvvvvvv=Vibrato


Verse 1:
           D             A        Bm
There's a fruitcake for everybody
A            G          Fm      Em A
There's a fuitcake for everyone
           D              A       Bm
There are "being sad" to every story
A      G          Fm        Em  A
If you decide to have some fun

Chorus:
    D    A                Bm  A
Take a bite it's alright
               G                         Bb    C
There's some brandy and star margarine
    D               A
To make it bright
    D      A              Bm  A
Take a bite it's alright
              G                                         Asus4
A little lovin and some fruit to bake life is a
  A
Piece of

Interlude:
D-C-G
Cake

Verse 2:


-----------------3--------------0-----------------2---------------0-----------------3--------------2--|
-----------------2--------------2-----------------3---------------2-----------------3--------------2--|
--------2-----------------------2-----------------4---------------2-----------------0--------------2--|
----0----------------------2-----------------4----------------2---------------------------------------|
-----------------------0----------------2------------------0--------------------2---------------4-----|
------------------------------------------------------------------------------3--------------2--------|

--------------------------------|
-----------------------3--3--2--|
-----------------------2--2--2--|
-----------------------2--2--2--|
-------------------0------------|
---0----2----3------------------|


-------------------3-------------0-----------------2---------------0-----------------3----------2--|
-------------------2-------------2-----------------3---------------2-----------------3----------2--|
--------2------------------------2-----------------4---------------2-----------------0----------2--|
----0-----------------------2-----------------4---------------2------------------------------------|
------------------------0----------------2----------------0-----------------------2-----------4----|
-------------------------------------------------------------------------------3------------2------|


---------------------------------------------|
---------------------------------------------|
---------------------------------------------|
---------------------------------------------|
---------------------------0----2----4----0--|
-0-----2----3----4---------------------------|

Repeat Chorus

Interlude: E-D

Bridge: E-D-E-D-E-D

Ad Lib: F-G-D-F-G-D-C

---------------------------------------------------------------------------------------------------------|
-------------------------------------6----6--------------------------------------8----8---------10f--10--|
-----------------------5-----5s7----------------------------------7----7s9----------------9--------------|
------3-----5s7--------------------------------------5-----7s9-------------------------------------------|
---------------------------------------------------------------------------------------------------------|
---------------------------------------------------------------------------------------------------------|

-------15f-----------------------------------------------------------------|
------------------13-----15--13------12--13--------14--12---10-------------|
----------------------14----------14-------------12--------------------12--|
---------------------------------------------------------------------------|
---------------------------------------------------------------------------|
---------------------------------------------------------------------------|

------------------------------------------------------------------------------------------------------10--|
----------------------------------6---8---6---------------------------------------8---8-------------------|
----------------------5—5s7------------------7--------------------7---7s9--------------9-----11-----------|
-----5----5---5s7-------------------------------------5------7s9------------------------------------------|
----------------------------------------------------------------------------------------------------------|
----------------------------------------------------------------------------------------------------------|

-----10--8-----12-----12vvvvv--|
-------------------------------|
-------------------------------|
-------------------------------|
-------------------------------|
-------------------------------|

Bridge:
	     Bb			C		Bb		     C
Stars are falling down from heaven but it's nowhere near the town
		Bb		      C		       Bb	      Fdim       A
Miracles are falling down from heaven but it's nowhere near the town.

Repeat chorus

Coda:
G			         A7sus4	  A7         D
Lovin and some fruit to bake life is a piece of cake.

End.
            
Submit corrections

comments powered by Disqus
↑ Back to top | Eraserheads Tabs for Fruit Cake. Lyrics for acoustic guitar and electric guitar. Tablatures and chords are parodies/interpretations of the original songs. You may use it for private study, scholarship, research or language learning purposes only