» » »

Eraserheads, Fruit Cake Bass tabs (ver.2)

Artists:  A B C D E F G H I J K L M N O P Q R S T U V W X Y Z # 

Fruit Cake Bass tabs (ver.2)

Eraserheads Tabs
 Rating:
3.8/5 (5 votes)
Fruit Cake lessons Tabs too difficult? Try these video lessons and learn fast
1
                
ERASERHEADS - FRUITCAKE
Tuning - Eb

CHORUS:
    D   A   Bm  A   G     Bb-C-D     A
e|------------------------------------------------|
B|------------------------------------------------|
G|------------------------------------------------|
D|------7---9---7---5---8-10-10/12---5------------|
A|--5---------------------------------------------|
E|------------------------------------------------|

    D   A   Bm  A   G          A
e|------------------------------------------------|
B|------------------------------------------------|
G|------------------------------------------------|
D|------------------------------------------------|
A|--5---4---2-------------------------------------|
E|--------------5---3~-----3-4-5------------------|



INTERLUDE:
     	D	C	G
e|------------------------------------------------|
B|------------------------------------------------|
G|------------------------------------------------|(X2)
D|------------------------------------------------|
A|------55------33--------------------------------|
E|----------------------3333----------------------|



VERSE:
    D   A   Bm  A   G  F#m  Em    A
e|------------------------------------------------|
B|------------------------------------------------|
G|------------------------------------------------|(X2)
D|------------------------------------------------|
A|--5---------------------------------------------|
E|------5---7---5---3---2---0-2-3-5---------------|



CHORUS:
    D   A   Bm  A   G     Bb-C-D     A
e|------------------------------------------------|
B|------------------------------------------------|
G|------------------------------------------------|
D|------7---9---7---5---8-10-10/12---5------------|
A|--5---------------------------------------------|
E|------------------------------------------------|

    D   A   Bm  A   G          A
e|------------------------------------------------|
B|------------------------------------------------|
G|------------------------------------------------|
D|------------------------------------------------|
A|--5---4---2-------------------------------------|
E|--------------5---3------3-4-5------------------|



BRIDGE:
    E		 D
e|------------------------------------------------|
B|------------------------------------------------|
G|------------------------------------------------|(X4)
D|------------------------------------------------|
A|--7--7--7--7---5--5--5--5-----------------------|
E|------------------------------------------------|

    E		 D
e|------------------------------------------------|
B|------------------------------------------------|
G|------------------------------------------------|(X8)
D|------------------------------------------------|
A|--7--7--7--7---5--5-----------------------------|
E|---------------------54--5-7--------------------|



ADLIB:
    F      G      D
e|------------------------------------------------|
B|------------------------------------------------|
G|------------------------------------------------|(X2)
D|------------------------------------------------|
A|----------------5555555555----------------------|
E|--11111--33333----------------------------------|

    F      G      D      C
e|------------------------------------------------|
B|------------------------------------------------|
G|------------------------------------------------|(X2)
D|------------------------------------------------|
A|----------------55555--3~-----------------------|
E|--11111--33333----------------------------------|



BRIDGE:
    Bb    		C
e|------------------------------------------------|
B|------------------------------------------------|
G|------------------------------------------------|(X4)
D|------------------------------------------------|
A|--1~------------------3~------------------------|
E|------------------------------------------------|


REPEAT VERSE
REPEAT CHORUS
            
Submit corrections

comments powered by Disqus
↑ Back to top | Eraserheads Bass for Fruit Cake. Lyrics for acoustic guitar and electric guitar. 1 Tablatures and chords are parodies/interpretations of the original songs. You may use it for private study, scholarship, research or language learning purposes only