» » »

Love In Your Arms Tabs (ver.2)

Artists:  A B C D E F G H I J K L M N O P Q R S T U V W X Y Z # 

Love In Your Arms Tabs (ver.2)

Eleventyseven
Rating:
5/5 (1 vote)

Hard to play? Try these video lessons and learn fast.
                Love In Your Arms
Eleventyseven
Galactic Conquest


Intro
eb|-----------------------------------------------|
Bb|-----------------------------------------------|
Gb|-----------------------------------------------|
Db|-22222222-44444444-77777777-99999999-----------| X2
Ab|-22222222-44444444-77777777-99999999-----------|
Eb|-00000000-22222222-55555555-77777777-----------|
    Eb5      F5       Ab5      Bb5

Verse
eb|-----------------------------------------------|
Bb|-----------------------------------------------|
Gb|-----------------------------------------------|
Db|-22--------44--------77--------99--------------| X2
Ab|-22-(rest)-44-(rest)-77-(rest)-99--------------|
Eb|-00--------22--------55--------77--------------|
    Eb5       F5        Ab5       Bb5

Prechorus
eb|-----------------------------------------------|
Bb|-----------------------------------------------|
Gb|----------6-666666----------13131313-11111111--|
Db|-7-777777-6-666666-9-999999--x-x-x-x-x-x-x-x---| X2(second time end on
Ab|-7-777777-4-444444-9-999999-11111113-9-9-9-9---|    Bb5)
Eb|-5-555555----------7-777777--------------------|
    Ab5      C5       Bb5      G        F

Chorus
eb|-----------------------------------------------|
Bb|-----------------------------------------------|
Gb|-----------------------------------------------|
Db|-22222222-44444444-77777777-99999999-----------| X2
Ab|-22222222-44444444-77777777-99999999-----------|
Eb|-00000000-22222222-55555555-77777777-----------|
    Eb5      F5       Ab5      Bb5
                                 
Verse 2 (X2)
Prechorus (X2)
Chorus (X2)

Breakdown
eb|-----------------------------------------------|
Bb|-----------------------------------------------|
Gb|-----------------------------------------------|
Db|-----------------------------------------------|
Ab|-----------------------------5-----------------|
Eb|-00-7-33-33h55---00-7-33-33h5------------------|

Guitar Chorus
eb|-----------------------------------------------|
Bb|-----------------------------------------------|
Gb|-----------------------------------------------|
Db|--2-2-2-2-4-4-4-4-7-7-7-7-9-9-9-9--------------| X2
Ab|-----------------------------------------------|
Eb|-0-0-0-0-2-2-2-2-5-5-5-5-7-7-7-7---------------|

Chorus (X2)
Intro (X2)
Breakdown (X2)  
            
Hard to play? Try these video lessons and learn fast. | Correct




comments powered by Disqus
↑ Back to top | Tablatures and chords are parodies/interpretations of the original songs. You may use it for private study, scholarship, research or language learning purposes only