» » »

Eleventyseven, Love In Your Arms Bass tabs (ver.2)

Artists:  A B C D E F G H I J K L M N O P Q R S T U V W X Y Z # 

Love In Your Arms Bass tabs (ver.2)

Eleventyseven Tabs
 Rating:
4/5 (4 votes)
Love In Your Arms lessons Tabs too difficult? Try these video lessons and learn fast
1
                Here is love in your arms by eleventyseven bass tab....

Intro                                   2x
G-----------------------------------------------|
D-----------------------------------------------|
A-----------------------------------------------|
E-00000000-1/22222222/55555555/77777777---------|
Verse
G--------------------------|
D--------------------------|
A-------00-----------00----|
E-00-22----77--00-22----77-|
Pre- Chorus
G------------------------|
D------------------------|
A--------4-4-44----------|
E-5-5-55--------7-7-77---|
Chorus                                2x
G---------------------------------------------|
D---------------------------------------------|
A-------------------00000000------------------|
E-00000000-22222222----------77777777---------|
Verse
Verse
G--------------------------|
D--------------------------|
A-------00-----------00----|
E-00-22----77--00-22----77-|
Pre- Chorus
G------------------------|
D------------------------|
A--------4-4-44----------|
E-5-5-55--------7-7-77---|
Chorus                                2x
G---------------------------------------------|
D---------------------------------------------|
A-------------------00000000------------------|
E-00000000-22222222----------77777777---------|
Bridge                         2x
G----------------------------------|
D----------------------------------|
A----------------------------5-----|
E-00-7-3333-555-00-7-33333-55------|
Vocals Only
Chorus                                2x
G-------------------------------------------------------------------------------------|
D-------------------------------------------------------------------------------------|
A-------------------00000000----------------------------------------------------------|
E-00000000-22222222----------77777777---------|                        Chorus Part 2--|  
                                                         2x
G-------------------------------------------------------------------------------------|
D-------------------------------------------------------------------------------------|
A--------------------------------4466-77777777----------------------------------------|
E-00000000-22222222-55555555-7777--------------22222222-55555555-77777777-------------|
Bridge/Outro                    2x
G----------------------------------|
D----------------------------------|
A----------------------------5-----|
E-00-7-3333-555-00-7-33333-55------|
            
Submit corrections

comments powered by Disqus
↑ Back to top | Eleventyseven Bass for Love In Your Arms. Lyrics for acoustic guitar and electric guitar. 1 Tablatures and chords are parodies/interpretations of the original songs. You may use it for private study, scholarship, research or language learning purposes only