» » »

Love In Your Arms Tabs (ver.1)

Artists:  A B C D E F G H I J K L M N O P Q R S T U V W X Y Z # 

Love In Your Arms Tabs (ver.1)

Eleventyseven
Rating:
3/5 (1 vote)

Hard to play? Try these video lessons and learn fast.
                

hey this is like the best song off the new album. its really easy and alot of fun to play.

Intro:
E--------------------------------|
B--------------------------------|
G-8------------8-----------------|
D-8---8--6--8--8-8--6--8---------|
A-6---8--6--8--6-8--6--8---------|
E-----6--4--6----6--4--6---------|
Listen for strumming

verse 1: Ive been Looking for...
E--------------------------------|
B--------------------------------|
G-88--------------88-------------|
D-88--88--66--88--88--88--66--88-|
A-66--88--66--88--66--88--66--88-|
E-----66--44--66------66--44--66-|


Prechorus: Everybody is laying down the law...
E--------------------|
B--------------------|
G-----8---8----8---8-|
D--6--8-8-8--6-8-8-8-|
A--6--6-8-6--6-6-8-6-|
E--4----6----4---6---|


Chrous: I was lost in a place...
E--------------------------------|
B--------------------------------|
G-8------------8-----------------|
D-8---8--6--8--8-8--6--8---------|
A-6---8--6--8--6-8--6--8---------|
E-----6--4--6----6--4--6---------|
Listen for strumming

Verse 2:I never bothered with the politics...
Same as verse 1
Chorus 2: I was lost in a place...

Ok thats it just play the chorus till the end.  If yu have any questions my email
            
Hard to play? Try these video lessons and learn fast. | Correct




comments powered by Disqus
↑ Back to top | Tablatures and chords are parodies/interpretations of the original songs. You may use it for private study, scholarship, research or language learning purposes only