» » »

Eleventyseven, Love In Your Arms Bass tabs (ver.1)

Artists:  A B C D E F G H I J K L M N O P Q R S T U V W X Y Z # 

Love In Your Arms Bass tabs (ver.1)

Eleventyseven Tabs
 Rating:
4/5 (4 votes)
Love In Your Arms lessons Tabs too difficult? Try these video lessons and learn fast
1
                intro after the catchy techno beat
G---------------------------------------------|
D---------------------------------------------| times 2
A---------------------------------------------|
E-00000000-22222222-55555555-77777777---------|

verse
G-------------|
D-------------| times 2
A-------------|
E-00-22-55-77-|

pre-chorus
G------------------------             -----------    ------------|
D------------------------             -----------    ------------| repeat
A--------4-4-44---------- then either ----------- or -7777-9999--| first
E-5-5-55--------7-7-77---             -0000-2222-    ------------| part

chorus
G---------------------------------------------|
D---------------------------------------------| times 2
A---------------------------------------------|
E-00000000-22222222-55555555-77777777---------|

verse
G-------------|
D-------------| times 2
A-------------|
E-00-22-55-77-|

pre-chorus
G------------------------             -----------    ------------|
D------------------------             -----------    ------------| repeat
A--------4-4-44---------- then either ----------- or -7777-9999--| first
E-5-5-55--------7-7-77---             -0000-2222-    ------------| part

Breakdown
G----------------------------------|
D----------------------------------|
A----------------------------5-----| times 2
E-00-7-3333-555-00-7-33333-55------|

rest

Chorus
G---------------------------------------------|
D---------------------------------------------| times 2
A---------------------------------------------|
E-00000000-22222222-55555555-77777777---------|

chorus times 2
G-------------------------------------------------------------------------|
D-------------------------------------------------------------------------|
A--------------------------------4466-77777777----------------------------|
E-00000000-22222222-55555555-7777--------------22222222-55555555-77777777-|

outro
G----------------------------------|
D----------------------------------|
A----------------------------5-----| times 2
E-00-7-3333-555-00-7-33333-55------|
            
Submit corrections

comments powered by Disqus
↑ Back to top | Eleventyseven Bass for Love In Your Arms. Lyrics for acoustic guitar and electric guitar. 1 Tablatures and chords are parodies/interpretations of the original songs. You may use it for private study, scholarship, research or language learning purposes only