» » »

Editors, All Sparks Bass tabs (ver.2)

Artists:  A B C D E F G H I J K L M N O P Q R S T U V W X Y Z # 

All Sparks Bass tabs (ver.2)

Editors Tabs
 Rating:
4.5/5 (8 votes)
All Sparks lessons Tabs too difficult? Try these video lessons and learn fast
1
                                       All Sparks - Editors
-----------------------------------------------------------------------------



Verse:

G|---------------------------------------------------------------------------|
D|-------4-----2--4-----------------4-----2--4-------------------------------|
A|---------------------------------------------------------------------------|
E|-2--2-----2--------2--0-----2--2-----2--------2--2-------------------------|

G|---------------------------------------------------------------------------|
D|---------------------------------------------------------------------------|
A|-------5-5-----------------------5--5--------------------------------------|
E|-0--0-------7--7--0--0-----0--0--------77--0--0----------------------------|

Chorus:

G|---------------------------------------------------------------------------|
D|------------------------------------------------------12--11---------------|
A|-5--5--5--5-----5--5--5--5-----9--9--9--9-----12--12-----------------------|
E|---------------------------------------------------------------------------|

| /  slide up
| \  slide down
| h  hammer-on
| p  pull-off
| ~  vibrato
| +  harmonic
| x  Mute note
===============================================================================
            
Submit corrections

comments powered by Disqus
↑ Back to top | Editors Bass for All Sparks. Lyrics for acoustic guitar and electric guitar. 1 Tablatures and chords are parodies/interpretations of the original songs. You may use it for private study, scholarship, research or language learning purposes only