» » »

Editors, All Sparks Bass tabs (ver.1)

Artists:  A B C D E F G H I J K L M N O P Q R S T U V W X Y Z # 

All Sparks Bass tabs (ver.1)

Editors Tabs
 Rating:
3/5 (6 votes)
All Sparks lessons Tabs too difficult? Try these video lessons and learn fast
1
                Editors - All Sparks, from album The Back Room 

Standard Tuning EADG

Update - Fully corrected, this should be 100%

Intro/Verse (Repeat this section 4 times)
G|-----9-----------|
D|-----------------| X4
A|-9-9---9-9-9-9-9-|
E|-----------------|

G|-----7-----------|
D|---------9-9-9-9-| X2
A|-7-7---7---------|
E|-----------------|

G|-----9-----------|
D|-----------------| X2
A|-9-9---9-9-9-9-9-|
E|-----------------|

Chorus
G|-----------------------------------|
D|-0-0-0-0-0-0-0-0-4-4-4-4/9-9-12-11-| X3
A|-----------------------------------| 
E|-----------------------------------|

G|---------------------------------|
D|---------------------------------| 
A|-5-5-5-5-5-5-5-5-9-9-9-9---------| 
E|-------------------------7-7-7-7-|

Verse (Repeat this section 3 times)
G|-----9-----------|
D|-----------------| X4
A|-9-9---9-9-9-9-9-|
E|-----------------|

G|-----7-----------|
D|---------9-9-9-9-| X2
A|-7-7---7---------|
E|-----------------|

G|-----9-----------|
D|-----------------| X2
A|-9-9---9-9-9-9-9-|
E|-----------------|

Chorus
G|-----------------------------------|
D|-0-0-0-0-0-0-0-0-4-4-4-4/9-9-12-11-| X3
A|-----------------------------------| 
E|-----------------------------------|

G|---------------------------------|
D|-0-0-0-0-0-0-0-0-4-4-4-4/9-9-9-9-| 
A|---------------------------------| 
E|---------------------------------|

Bass Break
G|-----9-------------|
D|-----------12-11-9-| X3
A|-9-9---9-9---------|
E|-------------------|

G|-----9----------|
D|-----------7--7-|
A|-9-9---9-9------|
E|----------------|

Guitar Comes Back In (Repeat this section 2 times)
G|-----9-------------|
D|-----------12-11-9-| X4
A|-9-9---9-9---------|
E|-------------------|

G|-----7-----------|
D|---------9-9-9-9-| X2
A|-7-7---7---------|
E|-----------------|

G|-----9-------------|
D|-----------12-11-9-| X2
A|-9-9---9-9---------|
E|-------------------|

Chorus
G|---------------------------------|
D|-0-0-0-0-0-0-0-0-4-4-4-4---------| 
A|-------------------------2-2-2-2-| 
E|---------------------------------|


G|-----------------------------------|
D|-0-0-0-0-0-0-0-0-4-4-4-4/9-9-12-11-| X2
A|-----------------------------------| 
E|-----------------------------------|

G|---------------------------------|
D|-0-0-0-0-0-0-0-0-4-4-4-4/9-9-9-9-|
A|---------------------------------| 
E|---------------------------------|

G|---------------------------------|
D|-0-0-0-0-0-0-0-0-4-4-4-4---------| X4
A|-------------------------2-2-2-2-| 
E|---------------------------------|

G|-----9\-|
D|--------| 
A|-9-9----| 
E|--------|


Thats what I think it goes like.

Adam Vaughan

h = Hammer On
\ = Slide Down
            
Submit corrections

comments powered by Disqus
↑ Back to top | Editors Bass for All Sparks. Lyrics for acoustic guitar and electric guitar. 1 Tablatures and chords are parodies/interpretations of the original songs. You may use it for private study, scholarship, research or language learning purposes only