» » »

Editors, An End Has A Start Bass tabs (ver.1)

Artists:  A B C D E F G H I J K L M N O P Q R S T U V W X Y Z # 

An End Has A Start Bass tabs (ver.1)

Editors Tabs
 Rating:
4/5 (5 votes)
An End Has A Start lessons Tabs too difficult? Try these video lessons and learn fast
1
                Most of this should be correct except the chorus I didn’t get that right

Starts at (0:06)
Intro/Verse  x4
G||------------------------------------------------------------------|
D||------------------------------------------------------------------|
A||-2-2-2-2-2-2-2-2--9-9-9-9-9-9-9-9--5-5-5-5-5-5-5-9-9-9-9-9-9-9-9--| 
E||------------------------------------------------------------------|

Pre-Chorus
G|------------------------------------------------------------------|
D|------------------------------------------------------------------|
A|-7-7-7-7-7-7-7-7--2-2-2-2-2-2-2-2--5-5-5-5-5-5-5--9-9-9-9-9-9-9-9-|  x2
E|------------------------------------------------------------------|

G|---------------------------------|
D|---------------------------------|
A|-7-7-7-7-7-7-7-7-7-7-7-7-7-7-7-7-|
E|---------------------------------|

Chorus  x4
G|-------------------------------------------------------------------------|
D|---------------4-4-------------7-7-7-7-----------------------------------|
A|--2-2-2-2-2-2---------4-4-4-4------------7-7-7-7-7-7-7-7-7-7-7-7-7-7-7-7-|
E|-------------------------------------------------------------------------|

Intro/Verse  (variations of it)
Pre-Chorus
Chorus

Bridge  x2
G|------------------------------------------------------------------|
D|------------------------------------------------------------------|
A|5-5-5-5-5-5-5-5-9-9-9-9-9-9-9-9-7-7-7-7-7-7-7-7-7-4-4-4-4-4-4-4-4-|
E|------------------------------------------------------------------|

G|------------------------------------------------------------------|
D|------------------------------------------------------------------|
A|5-5-5-5-5-5-5-5-9-9-9-9-9-9-9-9-7-7-7-7-7-7-7-7-7-7-7-7-7-7-7-7-7-|
E|------------------------------------------------------------------|

Breakdown thing
G|
D|
A| REST
E|

Come back in at (2:46)

Chorus
Intro/Verse
            
Submit corrections

comments powered by Disqus
↑ Back to top | Editors Bass for An End Has A Start. Lyrics for acoustic guitar and electric guitar. 1 Tablatures and chords are parodies/interpretations of the original songs. You may use it for private study, scholarship, research or language learning purposes only