» » »

All Sparks Tabs (ver.3)

Artists:  A B C D E F G H I J K L M N O P Q R S T U V W X Y Z # 

All Sparks Tabs (ver.3)

Editors
Rating:
0/5 (0 votes)

Hard to play? Try these video lessons and learn fast.
                This is a really good song by the editors and possibly one of their best

The whole song is played quite shoppy so if i have missed a few notes off i apologize

Standard tuning :- E A D G B E

Intro riff
E|------------------    E|-------------------------------|-----------------|
A|------------------    A|--9-9-9-10----9-9-9-10---------|-----------------|
D|------11-11-9-9-11    D|-----------11----------11-9-11-|----11-11-9-9-11-|
G|------------------ x4 G|-------------------------------|-----------------|x2
B|--9-9-------------    B|-------------------------------|9-9--------------|
E|------------------    E|-------------------------------|-----------------|

Verse
E|--9-12-9-12-9-12-9-12-9-12-9-12-9-12------------------------------|
A|-------------------------------------9-9-9-10----9-9-9-10---------|
D|----------------------------------------------11----------11-9-11-|
G|------------------------------------------------------------------|
B|------------------------------------------------------------------|
E|------------------------------------------------------------------|

Chorus
E|------------------|
A|------------------|
D|--7-7-7-7-----4-4-|
G|--7-7-7-7-4-4-4-4-|
B|--5-5-5-5-4-4-2-2-|
E|----------2-2-----|


All You have to do now is rap that all together to make this bundle of joy that is a great song

Pukka!
            
Hard to play? Try these video lessons and learn fast. | Correct




comments powered by Disqus
↑ Back to top | Tablatures and chords are parodies/interpretations of the original songs. You may use it for private study, scholarship, research or language learning purposes only