» » »

Easybeats, Friday On My Mind Bass tabs (ver.3)

Artists:  A B C D E F G H I J K L M N O P Q R S T U V W X Y Z # 

Friday On My Mind Bass tabs (ver.3)

Easybeats Tabs
 Rating:
4/5 (4 votes)
Friday On My Mind lessons Tabs too difficult? Try these video lessons and learn fast
                Friday On My Mind
Song originally recorded by The Australian Band The Easybeats.
Released in late 1966 it was a number 1 in Oz & Holland
Number 6 in UK. Original bassist Dick Diamonde. Tab by bass50611
If you listen closely to the original recording there is bass from
the outset, other versions indicate no bass at the start.

Verse :
                                 Monday Morning Feels So
G|-------------------------------------------------|
D|-14-14-14-14-14-14-14-14-14-14-14-14-14-14-14-14-|
A|-------------------------------------------------|
E|-------------------------------------------------|

   Bad                      Everybody seems to Nag Me
G|-------------------------------------------------------------|
D|----------12--12----14-14-14-14-14-14-14-14---------12--12---|
A|-12--12-----12--12--------------------------12--12----12--12-|
E|---12--12-------------------------------------12--12---------|

        Coming Tuesday I Feel Better                 Even My Old Man
G|----------------------------------------------------------------------|
D|----------------------------9-9-9-9-9-9-9-9---14-14-14-14-14-14-14-14-|
A|-10-10-10-10-10-10-10-10----------------------------------------------|
E|----------------------------------------------------------------------|

  Good              Wednesday        Thurs         my mind
G|-------------------------------------------------------------|
D|--------------------------------------------------------77---|
A|-12-----12-----12-----12---12\-5----5----5----5-------77--9--|
E|------12-----12-----12-------------5----5----5----5-88-----9-|

Chorus:
G|------------------------------------------------------------------|
D|------------------------------------------------------------------|
A|--------------4-44---4-44---------------4-44---4-44---5-55---5-55-|
E|-5-55---5-55---------------5-55---5-55----------------------------|

G|------------------------------7-7-7-7-7-7-7-7-----------------|
D|--------------9-9-9-9-9-9-9-9-----------------9-9-9-9-9-9-9-9-|
A|--------------------------------------------------------------|
E|-2-22---2-22--------------------------------------------------|
                                                       .   .    .    .
G|-7-7-7-7-7-7-7-7---9-9-9-9-9-9-9-9-9-9-9-9-9-9-9-9-------7-----------|
D|-----------------------------------------------------7--------5------|
A|-------------------------------------------------------------------7-|
E|---------------------------------------------------------------------|

Repeat Verse & Chorus:

Drum Interlude:

Outro:             (REPEAT OUTRO TO FADE/END)
G|--------------------------|
D|--------------------------|
A|--------------4-44---4-44-|
E|-5-55---5-55--------------|
            
Submit corrections

comments powered by Disqus
↑ Back to top | Easybeats Bass for Friday On My Mind. Lyrics for acoustic guitar and electric guitar. Tablatures and chords are parodies/interpretations of the original songs. You may use it for private study, scholarship, research or language learning purposes only