» » »

Easybeats, Friday On My Mind Bass tabs (ver.1)

Artists:  A B C D E F G H I J K L M N O P Q R S T U V W X Y Z # 

Friday On My Mind Bass tabs (ver.1)

Easybeats Tabs
 Rating:
4/5 (4 votes)
Friday On My Mind lessons Tabs too difficult? Try these video lessons and learn fast
1
                Friday On My Mind”
The Easybeats


G|----------------|----------------|----------------|----------------|
D|----------------|----------------|----------------|----------------|
A|----------------|----------------|----------------|----------------|
E|----------------|----------------|----------------|----------------|
                                            Monday morning feels so bad

G|----------------|----------------|----------------|----------------|
D|----------------|----------------|----------------|----------------|
A|----------------|----------------|----------------|----------------|
E|----------------|----------------|----------------|----------------|
                                              Everybody  seems to   

G|----------------|----------------|----------------|----------------|
D|----------------|----------------|----------------|----------------|
A|----------------|----------------|----------------|----------------|
E|----------------|----------------|----------------|----------------|
  nag              me                       Coming tuesday I feel 

G|----------------|----------------|----------------|----------------|
D|----------------|----------------|----------------|----------------|
A|----------------|----------------|----------------|----------------|
E|----------------|----------------|----------------|----------------|
  better                                     Even my   old man looks 


  Am                                A
G|----------------|----------------|----------------|----------------|
D|----------------|----------------|----------------|----------------|
A|----------------|----------------|----------------|------------0---|
E|------------0---|5-----------0---|5-----------0---|5---------------|
    good                                     Wednesday just won't go

G|----------------|----------------|----------------|----------------|
D|----------------|----------------|----------------|----------------|
A|5-----------0---|5-----------0---|5-----------0---|5-----------0---|
E|----------------|----------------|----------------|----------------|
         thursday goes too slow             I got friday   on    my

G|----------------|----------------|----------------|----------------|
D|----------------|----------------|----------------|----------------|
A|3---3-----------|0-------2-------|----------------|----------------|
E|--------0---0---|----2-------0---|5---5-5-5-5-5-5-|4h5-5-5-5-5-5-5-|
  mind                                      Goona have fun   in  the 

G|----------------|----------------|----------------|----------------|
D|----------------|----------------|----------------|----------------|
A|----------------|----------------|----------------|----------------|
E|4---4-4-4-4-4-4-|4---4-4-4-4-4-4-|5---5-5-5-5-5-5-|4h5-5-5-5-5-5-5-|
  city                                      Be with my girl she's so

G|----------------|----------------|----------------|----------------|
D|----------------|----------------|----------------|----------------|
A|----------------|----------------|5---5-5-5-5-5-5-|5-5-5-5-5-5-5-5-|
E|4---4-4-4-4-4-4-|4---4-4-4-4-4-4-|----------------|----------------|
  pretty                                    She looks fine tonight     

G|----------------|----------------|----------------|----------------|
D|----------------|----------------|----------------|----------------|
A|----------------|----------------|2---2-2-2-2-2-2-|2-2-2-2-2-2-2-2-|
E|2---2-2-2-2-2-2-|2-2-2-2-2-2-2-2-|----------------|----------------|
   She is  outasight     to   me                          
                                                                Tonight
G|----------------|----------------|----------------|----------------|
D|----------------|----------------|----------------|----------------|
A|5---5-5-5-5-5-5-|5-5-5-5-5-5-5-5-|2---2-2-2-2-2-2-|2-2-2-2-2-2-2-2-|
E|----------------|----------------|----------------|----------------|
           I'll   spend my bread              I'll   lose my head
                                Tonight                            Tonight
G|----------------|----------------|----------------|----------------|
D|----------------|----------------|----------------|----------------|
A|5---5-5-5-5-5-5-|5-5-5-5-5-5-5-5-|----------------|----------------|
E|----------------|----------------|5---5-5-5-5-5-5-|5-5-5-5-5-5-5-5-|
               I   got to get  tonight

G|----------------|----------------|----------------|----------------|
D|----------------|----------------|----------------|----------------|
A|7---7-7-7-7-7-7-|7-7-7-7-7-7-7-7-|----------------|----------------|
E|----------------|----------------|5---0---5---0---|5---0---5---0---|
                                    Monday I'll have friday on my mind

G|----------------|----------------|
D|----------------|----------------|
A|----------------|----------------|
E|5---0---5---0---|0---------------|
  mind                                    

G|----------------|----------------|----------------|----------------|
D|----------------|----------------|----------------|----------------|
A|7-------7-------|7-------7-------|7-------7-------|7-------7-------|
E|----7-------7---|----7-------7---|----7-------7---|----7-------7---|
                                           Do the five day grind once 

G|----------------|----------------|----------------|----------------|
D|----------------|----------------|----------------|----------------|
A|----------------|5---0---5---0---|7-------7-------|7-------7-------|
E|5---0---5---0---|----------------|----7-------7---|----7-------7---|
  more                                    Know of nothing else that bugs

G|----------------|----------------|----------------|----------------|
D|----------------|----------------|5---0---5---0---|5---0---5---0---|
A|----------------|5---0---5---0---|----------------|----------------|
E|5---0---5---0---|----------------|----------------|----------------|
  me                                      More than working for the rich 

G|----------------|----------------|----------------|----------------|
D|9-------9-------|9-------9-------|----------------|----------------|
A|----9-------9---|----9-------9---|7-------7-------|7--------7------|
E|----------------|----------------|----7-------7---|----7-------7---|
  man                                    Hey, I'll change that sceene one

G|----------------|----------------|----------------|----------------|
D|----------------|----------------|----------------|----------------|
A|----------------|----------------|----------------|----------------|
E|5---0---5---0---|5---0---5---0---|5---0---5---0---|5---0---5---0---|
  day									Today I might be mad

G|----------------|----------------|----------------|----------------|
D|----------------|----------------|----------------|----------------|
A|5---0---5---0---|5---0---5---0---|5---0---5---0---|5---0---5---0---|
E|----------------|----------------|----------------|----------------|
        tomorrow I'll be glad           'cos I got friday on my

G|----------------|----------------|----------------|----------------|
D|----------------|----------------|----------------|----------------|
A|3---3-----------|0-------2-------|----------------|----------------|
E|--------0---0---|----2-------0---|5---5-5-5-5-5-5-|4h5-5-5-5-5-5-5-|
  mind                                 I'm gonna have fun    in the   

G|----------------|----------------|----------------|----------------|
D|----------------|----------------|----------------|----------------|
A|----------------|----------------|----------------|----------------|
E|4---4-4-4-4-4-4-|4---4-4-4-4-4-4-|5---5-5-5-5-5-5-|4h5-5-5-5-5-5-5-|
  city                                      Be with my girl she's so 

G|----------------|----------------|----------------|----------------|
D|----------------|----------------|----------------|----------------|
A|----------------|----------------|5---5-5-5-5-5-5-|5-5-5-5-5-5-5-5-|
E|4---4-4-4-4-4-4-|4---4-4-4-4-4-4-|----------------|----------------|
  pretty                                She looks fine tonight

G|----------------|----------------|----------------|----------------|
D|----------------|----------------|----------------|----------------|
A|----------------|----------------|2---2-2-2-2-2-2-|2-2-2-2-2-2-2-2-|
E|2---2-2-2-2-2-2-|2-2-2-2-2-2-2-2-|----------------|----------------|
        She is outasight        to  me          
Tonight
G|----------------|----------------|----------------|----------------|
D|----------------|----------------|----------------|----------------|
A|5---5-5-5-5-5-5-|5-5-5-5-5-5-5-5-|2---2-2-2-2-2-2-|2-2-2-2-2-2-2-2-|
E|----------------|----------------|----------------|----------------|
           I'll   spend my bread              I'll   lose my head
                                Tonight                            Tonight
G|----------------|----------------|----------------|----------------|
D|----------------|----------------|----------------|----------------|
A|5---5-5-5-5-5-5-|5-5-5-5-5-5-5-5-|----------------|----------------|
E|----------------|----------------|5---5-5-5-5-5-5-|5-5-5-5-5-5-5-5-|
               I   got to get  tonight

G|----------------|----------------|----------------|----------------|
D|----------------|----------------|----------------|----------------|
A|7---7-7-7-7-7-7-|7-7-7-7-7-7-7-7-|----------------|----------------|
E|----------------|----------------|5---0---5---0---|5---0---5---0---|
                                    Monday I'll have friday on my mind

G|----------------|----------------|
D|----------------|----------------|
A|----------------|----------------|
E|5---0---5---0---|0---------------|
  mind                                    

G|----------------|----------------|----------------|----------------|
D|----------------|----------------|----------------|----------------|
A|----------------|----------------|----------------|----------------|
E|----------------|5---5-5-5-5-5-5-|4h5-5-5-5-5-5-5-|4---4-4-4-4-4-4-|
			 	I'm gonna have fun    in the    city

G|----------------|----------------|----------------|----------------|
D|----------------|----------------|----------------|----------------|
A|----------------|----------------|----------------|----------------|
E|4---4-4-4-4-4-4-|5---5-5-5-5-5-5-|4h5-5-5-5-5-5-5-|4---4-4-4-4-4-4-|
				Be with my girl she's so		  pretty

G|----------------|----------------|----------------|----------------|
D|----------------|----------------|----------------|----------------|
A|----------------|----------------|----------------|----------------|
E|4---4-4-4-4-4-4-|5---5-5-5-5-5-5-|4h5-5-5-5-5-5-5-|4---4-4-4-4-4-4-|
				I'm gonna have fun    in the    city

G|----------------|----------------|----------------|----------------|
D|----------------|----------------|----------------|----------------|
A|----------------|----------------|----------------|----------------|
E|4---4-4-4-4-4-4-|5---5-5-5-5-5-5-|4h5-5-5-5-5-5-5-|4---4-4-4-4-4-4-|
				Be with my girl she's so	       pretty

G|----------------|----------------|----------------|----------------|
D|----------------|----------------|----------------|----------------|
A|----------------|----------------|----------------|5---------------|
E|4---4-4-4-4-4-4-|5---------------|0---------------|----------------|


G|----------------|----------------|----------------|----------------|
D|----------------|----------------|----------------|----------------|
A|----------------|----------------|----------------|----------------|
E|5---------------|----------------|----------------|----------------|
            
Submit corrections

comments powered by Disqus
↑ Back to top | Easybeats Bass for Friday On My Mind. Lyrics for acoustic guitar and electric guitar. 1 Tablatures and chords are parodies/interpretations of the original songs. You may use it for private study, scholarship, research or language learning purposes only