» » »

Goodtimes Tabs (ver.1)

Artists:  A B C D E F G H I J K L M N O P Q R S T U V W X Y Z # 

Goodtimes Tabs (ver.1)

Easybeats
Rating:
4/5 (3 votes)

Hard to play? Try these video lessons and learn fast.
                        Intro
e-----------------------|
B-----------------------|
G-2-2-1-1---------------|  x4
D---------4---4-4-4-4---|
A--2--2---2-2-2-2-2-2---|
E-----------------------|


        Verse
  B                         A  E   B
e------------------------------------|
B------------------------------------|
G------------------------------9-----|
D-4~------------------------7--9---9-|  x3
A-2~------------------------7--7-0-9-|
E---------------------------5--0---7-|
  Mary, Mary your on my mind........


         Chorus
  B            A                   E                       G
e-------------------------------------------------------------|
B-------------------------------------------------------------|
G-4~-----------2~---------------------------------------------|
D-4~-----------2~------------------2~----------------------5~-|
A-2~-----------0~------------------2~----------------------5~-|
E----------------------------------0~----------------------3~-|
   Gonna have a good time tonight, rock'n'roll music gonna play all night
  B            A                   E                         G
e---------------------------------------------------------------|
B---------------------------------------------------------------|
G-4~-----------2~-----------------------------------------------|
D-4~-----------2~------------------2~------------------------5~-|
A-2~-----------0~------------------2~------------------------5~-|
E----------------------------------0~------------------------3~-|
  Cmon baby it wont take a long,  only take a minute just to sing my song


        Verse
  B                         A  E   B
e------------------------------------|
B------------------------------------|
G------------------------------9-----|
D-4~------------------------7--9---9-|  x3
A-2~------------------------7--7-0-9-|
E---------------------------5--0---7-|

         Chorus
  B            A                   E                       G
e-------------------------------------------------------------|
B-------------------------------------------------------------|
G-4~-----------2~---------------------------------------------|
D-4~-----------2~------------------2~----------------------5~-|
A-2~-----------0~------------------2~----------------------5~-|
E----------------------------------0~----------------------3~-|
   Gonna have a good time tonight, rock'n'roll music gonna play all night
  B            A                   E                         G
e---------------------------------------------------------------|
B---------------------------------------------------------------|
G-4~-----------2~-----------------------------------------------|
D-4~-----------2~------------------2~------------------------5~-|
A-2~-----------0~------------------2~------------------------5~-|
E----------------------------------0~------------------------3~-|
  Cmon baby it wont take a long,  only take a minute just to sing my song

The guitar solo is a great one with lots of hammer-ons and pull-offs.  Simply make up 
own solo in the scale of B (Frets 7-9 (E, B and e 7-10))
            
Hard to play? Try these video lessons and learn fast. | Correct




comments powered by Disqus
↑ Back to top | Tablatures and chords are parodies/interpretations of the original songs. You may use it for private study, scholarship, research or language learning purposes only