» » »

Easybeats, Friday On My Mind Bass tabs (ver.2)

Artists:  A B C D E F G H I J K L M N O P Q R S T U V W X Y Z # 

Friday On My Mind Bass tabs (ver.2)

Easybeats Tabs
Rating:
0/5 (0 votes)
Friday On My Mind lessons Tabs too difficult? Try these video lessons and learn fast
                Friday On My Mind
The Easybeats
Written by Harry Vanda and George Young; released as a single with "Made My 
Bed (Gonna Lie In It)" as the B-side, and on the album "Friday On My Mind".

Intro:
G|------- ------- ------- -------|------- ------- ------- -------|
D|-------------------------------|-------------------------------|
A|-------------------------------|-------------------------------|
E|-------------------------------|-------------------------------|


Verse:
G|------- ------- ------- -------|------- ------- ------- -------|
D|-------------------------------|-------------------------------|
A|-------------------------------|-------------------------------|
E|-------------------------------|-------------------------------|
                  Monday      mor  -  ning    feels   so      bad,


G|------- ------- ------- -------|------- ------- ------- -------|
D|-------------------------------|-------------------------------|
A|-------------------------------|-------------------------------|
E|-------------------------------|-------------------------------|



G|------- ------- ------- -------|------- ------- ------- -------|
D|-------------------------------|-------------------------------|
A|-------------------------------|-------------------------------|
E|-------------------------------|-------------------------------|
                  Every   -   bo  -   dy      seems       to


G|------- ------- ------- -------|------- ------- ------- -------|
D|-------------------------------|-------------------------------|
A|-------------------------------|-------------------------------|
E|-------------------------------|-------------------------------|
  nag                             me.


G|------- ------- ------- -------|------- ------- ------- -------|
D|-------------------------------|-------------------------------|
A|-------------------------------|-------------------------------|
E|-------------------------------|-------------------------------|
                  Comin'      Tues -  day,    I       feel


G|------- ------- ------- -------|------- ------- ------- -------|
D|-------------------------------|-------------------------------|
A|-------------------------------|-------------------------------|
E|-------------------------------|-------------------------------|
  better,


G|------- ------- ------- -------|------- ------- ------- -------|
D|-------------------------------|-------------------------------|
A|-------------------------------|-------------------------------|
E|-------------------------------|-------------------------------|
                  E - ven     my      old     man     looks


G|------- ------- ------- -------|------- ------- ------- -------|
D|-------------------------------|7------------------------------|
A|------------------------7------|------------------------7------|
E|-------------------------------|-------------------------------|
                  good.
                                 (do- do- do- do- do- do- do- do-

G|------- ------- ------- -------|------- ------- ------- -------|
D|7------------------------------|7------------------------------|
A|------------------------7------|------------------------7------|
E|-------------------------------|-------------------------------|
                  Wednesday   just    don't   go,
  do)

G|------- ------- ------- -------|------- ------- ------- -------|
D|-------------------------------|-------------------------------|
A|5------------------------------|5------------------------------|
E|------------------------5------|------------------------5------|
                  Thursday    goes    too     slow,
                                 (do- do- do- do- do- do- do- do-

G|------- ------- ------- -------|------- ------- ------- -------|
D|-------------------------------|-------------------------------|
A|5------------------------------|5-----------------------0------|
E|------------------------5------|-------------------------------|
                  I   have    Fri  -  day     on      my
  do)

G|------- ------- 9------ 9------|------- ------- ------- -------|
D|--------10---------------------|7---------------9--------------|
A|10-----------------------------|--------9---------------7------|
E|-------------------------------|-------------------------------|
  mind.

Refrain:
G|------- ------- ------- -------|------- ------- ------- -------|
D|7-----------7---7-----------7--|7---7-------7-------7----------|
A|-------------------------------|-------------------------------|
E|-------------------------------|-------------------------------|
                  Gonna       have    fun         in      the


G|------- ------- ------- -------|------- ------- ------- -------|
D|6-----------6---6--------------|6---6-------6-------6---6------|
A|----------------------------7--|-------------------------------|
E|-------------------------------|-------------------------------|
  ci- ty,
                                 (do- do- do- do- do- do- do- do-

G|------- ------- ------- -------|------- ------- ------- -------|
D|7-----------7---7-----------7--|7---7-------7-------7----------|
A|-------------------------------|-------------------------------|
E|-------------------------------|-------------------------------|
                  Be  with    my      girl,       she's   so
  do)

G|------- ------- ------- -------|------- ------- ------- -------|
D|6-----------6---6--------------|6---6--------------------------|
A|----------------------------7--|------------7-------6----------|
E|-------------------------------|-------------------------------|
  pretty,
                                 (do- do- do- do- do- do- do- do)

G|------- ------- ------- -------|------- ------- ------- -------|
D|-------------------------------|-------------------------------|
A|5-----------5---5--------------|5---5-------5-------5----------|
E|----------------------------5--|-------------------------------|
                  She looks   fine        to- night,


G|------- ------- ------- -------|------- ------- ------- -------|
D|4-----------4---4-----------4--|4---4-------4-------4-----/----|
A|-------------------------------|-------------------------------|
E|-------------------------------|-------------------------------|
                  she is      out         of  sight       to  me.
 (to- to- to- to- to- to- to- to- to- to- to- to- to- to- to- to-

G|------- ------- ------- -------|------- ------- ------- -------|
D|9-----------9---9--------------|9---9-------9-------9----------|
A|----------------------------9--|-------------------------------|
E|-------------------------------|-------------------------------|
                                                          Tonight,
  to- to- to- to- to- to- to- to- to- to- to- to- to)

G|7---7-- 7---7-- 7---7-- 7---7--|7---7-- ----7-- ------- 7------|
D|-------------------------------|-------------------------------|
A|-------------------------------|-------------------------------|
E|-------------------------------|-------------------------------|
                      I'll        spend my    bread,      tonight,


G|------- ------- ------- -------|------- ------- ------- -------|
D|9---9---9---9---9---9---9---9--|9---9---9---9---9---9---9---9--|
A|-------------------------------|-------------------------------|
E|-------------------------------|-------------------------------|
                          I'll    lose my head,           Tonight,


G|7---7-- 7---7-- 7---7-- 7---7--|7---7-- 7---7-- 7---7-- 7---7--|
D|-------------------------------|-------------------------------|
A|-------------------------------|-------------------------------|
E|-------------------------------|-------------------------------|
                          I've    got     to  get         tonight.


G|9---9-- 9---9-- 7/9-9-- 9---9--|7/9-9-- 9---9-- 9---9-- 9---9--|
D|-------------------------------|-------------------------------|
A|-------------------------------|-------------------------------|
E|-------------------------------|-------------------------------|



G|9---9-- 9---9-- 9---9-- 9---9--|9---9-- 9---9-- 9------ 9------|
D|-------------------------------|-------------------------------|
A|-------------------------------|-------------------------------|
E|-------------------------------|-------------------------------|



G|------- ------- ------- -------|------- ------- ------- -------|
D|7---------------7--------------|7---------------7--------------|
A|--------7---------------7------|--------7---------------7------|
E|-------------------------------|-------------------------------|
  Mon  -  day I'll    have        Fri  -  day on          my


G|------- ------- ------- -------|------- ------- ------- -------|
D|7---------------7--------------|-------------------------------|
A|--------7---------------7------|7------------------------------|
E|-------------------------------|-------------------------------|
  mind.


G|------- ------- ------- -------|------- ------- ------- -------|
D|--------9---------------9------|--------9---------------9------|
A|7---------------7--------------|7---------------7--------------|
E|-------------------------------|-------------------------------|


Verse:
G|------- ------- ------- -------|------- ------- ------- -------|
D|--------9---------------9------|--------9---------------7------|
A|7---------------7--------------|7---------------7--------------|
E|-------------------------------|-------------------------------|
                  Do  the     five    day     drag    once


G|------- 9------ ------- -------|7------ ------- 7------ -------|
D|7---------------7-------7------|--------7---------------7------|
A|-------------------------------|-------------------------------|
E|-------------------------------|-------------------------------|
  more,


G|------- ------- ------- -------|------- ------- ------- -------|
D|--------9---------------9------|--------9----------------------|
A|7---------------7--------------|7---------------7-------7------|
E|-------------------------------|-------------------------------|
              I   know of         nothing     else        that


G|------- 9------ ------- -------|7------ ------- 7------ -------|
D|7---------------7-------7------|--------7---------------7------|
A|-------------------------------|-------------------------------|
E|-------------------------------|-------------------------------|
  bugs                            me


G|------- ------- ------- -------|------- ------- ------- -------|
D|5---------------5--------------|5---------------5-------5------|
A|--------5---------------5------|--------5----------------------|
E|-------------------------------|-------------------------------|
                  More than       working     for         the rich


G|4------ ------- 4------ -------|4------ ------- 4------ -------|
D|--------4---------------4------|--------4---------------4------|
A|-------------------------------|-------------------------------|
E|-------------------------------|-------------------------------|
      men,


G|------- ------- ------- -------|------- ------- ------- -------|
D|2---------------2--------------|2---------------2-------2---/--|
A|--------2---------------2------|--------2----------------------|
E|-------------------------------|-------------------------------|
                  Hey, I'll   change  that    scene   one


G|------- ------- ------- -------|------- ------- ------- -------|
D|7---------------7--------------|7---------------7--------------|
A|--------7---------------7------|--------7---------------7------|
E|-------------------------------|-------------------------------|
          day!


G|------- ------- ------- -------|------- ------- ------- -------|
D|7---------------7--------------|7------------------------------|
A|--------7---------------7------|--------7-------7-------6------|
E|-------------------------------|-------------------------------|
              To- day I       might   feel    mad,
  ooooooooooooooooooooooooooooooooooooooooooooooooooooooooooooooo

G|------- ------- ------- -------|------- ------- ------- -------|
D|-------------------------------|-------------------------------|
A|5---------------5--------------|5---------------5--------------|
E|--------5---------------5------|--------5---------------5------|
              to- morrow      I'll    be      glad,
  ooooooooooooooooooooooooooooooooooooooooooooooooooooooooooooooo

G|------- ------- ------- -------|------- ------- ------- -------|
D|-------------------------------|-------------------------------|
A|5---------------5--------------|5---------------5-------5/-----|
E|--------5---------------5------|--------5----------------------|
             'Cause I've got  Fri  -  day     on      my
  ooooooooooooooooooooooooooooooooooooooooooooooooooooooooooooooo

G|------- ------- 9------ 9------|------- ------- ------- -------|
D|10------10---------------------|7---------------9--------------|
A|-------------------------------|--------9---------------7------|
E|-------------------------------|-------------------------------|
  mind.
  aaaaaaaaaaaaaaaaaaaaaaaaaaaaaaa
Refrain:
G|------- ------- ------- -------|------- ------- ------- -------|
D|7-----------7---7--------------|7---7-------7-------7----------|
A|----------------------------7--|-------------------------------|
E|-------------------------------|-------------------------------|
              I'm gonna       have    fun         in      the


G|------- ------- ------- -------|------- ------- ------- -------|
D|6-----------6---6--------------|6---6-------6-------6----------|
A|----------------------------7--|-------------------------------|
E|-------------------------------|-------------------------------|
  ci- ty,
                                 (do- do- do- do- do- do- do- do-

G|------- ------- ------- -------|------- ------- ------- -------|
D|7-----------7---7--------------|7---7-------7-------7----------|
A|----------------------------7--|-------------------------------|
E|-------------------------------|-------------------------------|
                  Be  with    my      girl,       she's   so
  do)

G|------- ------- ------- -------|------- ------- ------- -------|
D|6-----------6---6--------------|6---6--------------------------|
A|----------------------------7--|------------7-------6----------|
E|-------------------------------|-------------------------------|
  pretty,
                                 (do- do- do- do- do- do- do- do)

G|------- ------- ------- -------|------- ------- ------- -------|
D|-------------------------------|-------------------------------|
A|5-----------5---5--------------|5---5-------5-------5----------|
E|----------------------------5--|-------------------------------|
                  She looks   fine        to- night,


G|------- ------- ------- -------|------- ------- ------- -------|
D|4-----------4---4--------------|4---4-------4-------4-----/----|
A|----------------------------5--|-------------------------------|
E|-------------------------------|-------------------------------|
                  she is      out     of      sight       to  me.
 (to- to- to- to- to- to- to- to- to- to- to- to- to- to- to- to-

G|------- ------- ------- -------|------- ------- ------- -------|
D|9-----------9---9--------------|9---9-------9-------9----------|
A|----------------------------9--|-------------------------------|
E|-------------------------------|-------------------------------|
                                                          Tonight,
  to- to- to- to- to- to- to- to- to- to- to- to- to)

G|7---7-- 7---7-- 7---7-- 7---7--|7---7-- 7---7-- 7---7-- 7---7--|
D|-------------------------------|-------------------------------|
A|-------------------------------|-------------------------------|
E|-------------------------------|-------------------------------|
                      I'll        spend my    bread,      tonight,


G|------- ------- ------- -------|------- ------- ------- -------|
D|9---9---9---9---9---9---9---9--|9---9---9---9---9---9---9---9--|
A|-------------------------------|-------------------------------|
E|-------------------------------|-------------------------------|
                      I'll        lose my head,           Tonight,


G|7---7-- 7---7-- 7---7-- 7---7--|7---7-- 7---7-- 7---7-- 7---7--|
D|-------------------------------|-------------------------------|
A|-------------------------------|-------------------------------|
E|-------------------------------|-------------------------------|
                      I've        got     to  get         tonight.


G|9---9-- 9---9-- 7/9-9-- 9---9--|7/9-9-- 9---9-- 7/9-9-- 9---9--|
D|-------------------------------|-------------------------------|
A|-------------------------------|-------------------------------|
E|-------------------------------|-------------------------------|



G|7/9-9-- 9---9-- 7/9-9-- 9---9--|7/9-9-- 9---9-- 7/9-9-- 9---9--|
D|-------------------------------|-------------------------------|
A|-------------------------------|-------------------------------|
E|-------------------------------|-------------------------------|



G|------- ------- ------- -------|------- ------- ------- -------|
D|7---------------7--------------|7---------------7--------------|
A|--------7---------------7------|--------7---------------7------|
E|-------------------------------|-------------------------------|
  Mon  -  day I'll    have        Fri  -  day on          my


G|------- ------- ------- -------|------- ------- ------- -------|
D|7---------------7--------------|-------------------------------|
A|--------7---------------7------|7------------------------------|
E|-------------------------------|-------------------------------|
  mind.


G|------- ------- ------- -------|
D|-------------------------------|
A|-------------------------------|
E|-------------------------------|


Outro:
G|------- ------- ------- -------|------- ------- ------- -------|
D|7-----------7---7--------------|7-----------7-------7----------|
A|----------------------------7--|-------------------------------|
E|-------------------------------|-------------------------------|
                  Gonna       have    fun         in      the


G|------- ------- ------- -------|------- ------- ------- -------|
D|6-----------6---6--------------|6---6-------6-------6----------|
A|----------------------------7--|-------------------------------|
E|-------------------------------|-------------------------------|
  ci- ty,
                                 (do- do- do- do- do- do- do- do-

G|------- ------- ------- -------|------- ------- ------- -------|
D|7-----------7---7--------------|7---7-------7-------7----------|
A|----------------------------7--|-------------------------------|
E|-------------------------------|-------------------------------|
             I'll be  with    my      girl,       she's   so
  do)

G|------- ------- ------- -------|------- ------- ------- -------|
D|6-----------6---6--------------|6---6-------6-------6----------|
A|----------------------------7--|-------------------------------|
E|-------------------------------|-------------------------------|
  pretty,
                                 (do- do- do- do- do- do- do- do)

G|------- ----9-- ------- ----9--|------- ------- ------- -------|
D|7---------------7--------------|7---7-------7-------7----------|
A|-------------------------------|-------------------------------|
E|-------------------------------|-------------------------------|
              I'm gonna       have    fun         in      the


G|------- ----6-- ------- ----6--|------- ------- ------- -------|
D|6---------------6--------------|6---6-------6-------6----------|
A|-------------------------------|-------------------------------|
E|-------------------------------|-------------------------------|
  ci- ty,
                                 (do- do- do- do- do- do- do- do-

G|------- ----9-- ------- ----9--|------- ------- ------- -------|
D|7---------------7--------------|7---7-------7-------7----------|
A|-------------------------------|-------------------------------|
E|-------------------------------|-------------------------------|
             I'll be  with    my      girl,       she's   so
  do)

G|------- ----6-- ------- ----6--|------- ------- ------- -------|
D|6---------------6--------------|6---6-------6-------6----------|
A|-------------------------------|-------------------------------|
E|-------------------------------|-------------------------------|
      pretty,
                                 (do- do- do- do- do- do- do- do)
fade out...

Please e-mail me for any corrections, or write a comment.
            

comments powered by Disqus
↑ Back to top | Easybeats Bass for Friday On My Mind. Lyrics for acoustic guitar and electric guitar. Tablatures and chords are parodies/interpretations of the original songs. You may use it for private study, scholarship, research or language learning purposes only