>
 >
Never Try

Never Try Guitar Tabs

Down - Never Try chords, tabs, tablatures, lyrics

Guitar lessons | Add/correct | Request | Top 50 tabs Artists:  A B C D E F G H I J K L M N O P Q R S T U V W X Y Z 0-9

Never Try Guitar Tabs – Down

CD, Sheet music, Poster

Do you like Never Try? Share with your friends now
Tabs
Band: Down
Tuning:Drop C, you can also play it like Down, in drop C#. Just add +1 to every note.


Intro Solo:

(Distortion with Wah)

1:---------------------------------------------------------|
2:12br-9h12p9----------------------------------------------|
3:-----------11-11-----------------9~----11br-9--9-11-9----|
4:-------------------9h11~----9-11----------------------11~|
5:---------------------------------------------------------|
6:---------------------------------------------------------|

                                            Wah----------------------
1:-----------------12b-12p9-12b-12b--9-12b--9h12p9--9-----------------|
2:------------------------------------------------12-12-9-------------|
3:-----9-11-11br------------------------------------------11br-9h11~\-|
4:7/11----------------------------------------------------------------|
5:--------------------------------------------------------------------|
6:--------------------------------------------------------------------|

 ----|           Wah----------------|
1:------------------------------------|
2:------------------------------------|
3:-----9--11--9-----------------------|
4:7/11--11--11-11~--9h11p9--9-----11~-|
5:------------------------11--11-9----|
6:------------------------------------|

Verse #1 (Start at 18 sec) In clean

1:-------------------------------------------------------------|
2:-------------------------------------------12----------------|
3:----9----------------------11br--------11b(13)-(11)r-p9--9---|
4:9-11-11~---11--10--9~--9h11-----14-11~-----------------11-11~|
5:-------------------------------------------------------------|
6:-------------------------------------------------------------|

1:--------------------------------------|
2:--------------------------------------|
3:-----9--9\8~--9-8---------9-11-11br-9~|
4:7/11--11---------9-9-9h11-------------|
5:--------------------------------------|
6:--------------------------------------|

Chorus #1 (Start at 38 sec) Clean Both Guitar

1:------------------------------------------------------------------|
2:------------------------------------------------------------------|
3:-------------1----------------------------------------------------|
4:--6--4h6p4-2---2/4~-6-4-4h6h4--------6---2/4-6---4-2~-6-4-4h6h4---|
5:4---4-------------------------4~---4---4-------4----------------4~|
6:------------------------------------------------------------------|

Second guitar

1:------------------------------------------------------------------|
2:------------------------------------------------------------------|
3:------------------------------------------------------------------|
4:----------------------4h6p4h6---------------------------4h6p4h6---|
5:------------------------------------------------------------------|
6:------------------------------------------------------------------|

1:--------------------------------------------|
2:--------------------------------------------|
3:---------------------------------6-----4--6-|
4:--6---2/4-6---4-2~-6-4-2h4p2---6-----4----6-|
5:4---4-------4----------------4-----2------4-|
6:--------------------------------------------|

After-Chorus (Start at 57 sec) Clean Both Guitar

1:------------------------------------------x-x---|
2:--------------------12br-9----------------x-x---|
3:11br-11---9------------------------9------x-x-9\|
4:--------11--11\------------11-9h11---11~------9\|
5:------------------------------------------------|
6:------------------------------------------------|

1:------------------------------------------|
2:------------------------------------------|
3:---------9----11-11phb-9---9------(9)-----|
4:----9-11-----------------11--11~-----(11)~|
5:9-11--------------------------------------|
6:------------------------------------------|

Second Guitar (Start at 59 sec) Very Slow

1:-----------------------------------------------|
2:-----------------------------------------------|
3:-----------------------------------------------|
4:----------2-2---------------------2-2----------|
5:/4~-3~-2~------4~-3~-2~-/4~-3~-2~-----4~-3~-2~-|
6:-----------------------------------------------|

Verse #1 (At 1:24) Clean Both Guitar

1:--------------------------|
2:--------------------------|
3:--------------------------|
4:6br-4h6p4~------6br-4h6p4~|
5:--------------------------|
6:--------------------------|


Second Guitar (At 1:17)

1:--------------------------|\
2:--------------------------| \
3:--------------------------|  \ 2X
4:--------------2-2---------|  /
5:/4~-3~-2/4\2~-----4~-3~-2~| /
6:--------------------------|/

Chorus #2 (Only one guitar) (Start at 1:34)

1:---------------|
2:---------------|
3:---------------|
4:------9-9-9-9-9|
5:9-9-9-9-9-9-9-9|
6:9-9-9-9-9-9-9-9|
PM. . . . . .

1:-----------------------------------------------------------|
2:-----------------------------------------------------------|
3:-----------------------------------------------------------|
4:9~----------------------------9~---------------------------|
5:9~----------------------------9~------9--------------------|
6:9~-11br-11-9-11-4~--6br-6-4-1-9~-11/13-13-11-4-6br-6-4-6-4~|

1:-----------------------------------------------------|
2:-----------------------------------------------------|
3:------------------------------6-6-6-6-6-6-9-9-9-9-9-9|
4:9~----------------------------6-6-6-6-6-6-9-9-9-9-9-9|
5:9~----------------------------4-4-4-4-4-4-7-7-7-7-7-7|
6:9~-11br-11-9-11-4~--6br-6-4-1------------------------|

Chorus with Solo (Start at 1:53)

Rhytm

1:-----------------------|\      \
2:-----------------------| \      \
3:6~--9~--11~------------|  \  3X  \
4:6~--9~--11~------------|  /       \ 
5:4~--7~---9~------------| /         \
6:-------------6br-6-4-1-|/           \  X2 Then start the Interlude
                                      /                                  
1:-----------------------------|     /
2:-----------------------------|    /
3:-----------------------------|   /
4:6-6-6-9-9-9-11-11-11-11-11-11|  /
5:4-4-4-7-7-7-9--9--9--9--9--9-| /
6:-----------------------------|/
PM.............................

1:----------------------------------|
2:12b-9-12~------------12-----------|
3:----------11-9-8-11b(13)r-11-9-9~\|
4:----------------------------------|
5:----------------------------------|
6:----------------------------------|

All of this is about 2 min of the song. I've improvise most of this tab, so do 
the same thing and it will
sound great. I'll probably tab the rest later if i got some feedback or thing 
like that...





Comments


Popular Down tabs & chords
Doob Interlude Bass Tabs
Jail Bass Tabs
Lies 1 Bass Tabs
Eyes Of The South Tabs
Lysergic Funeral Procession Tabs
Mourn Tabs
N.O.D Tabs
Stone The Crow Tabs
Stone The Crow 2 Tabs
The Seed Tabs


Song lyrics



↑ Back to top | Tablatures and chords are parodies/interpretations of the original songs. You may use it for private study, scholarship, research or language learning purposes only
© 2014 AZChords.com Contact us | Privacy policy | DMCA | Add/correct tabs | Request tabs | Top 50 tabs