>
 >
I Scream

I Scream Guitar Tabs

Down - I Scream chords, tabs, tablatures, lyrics

Guitar lessons | Add/correct | Request | Top 50 tabs Artists:  A B C D E F G H I J K L M N O P Q R S T U V W X Y Z 0-9

I Scream Guitar Tabs – Down

CD, Sheet music, Poster

Do you like I Scream? Share with your friends now
Tabs
Down's

Tuning C#, F#, B, E, G#, C#


      |---3---|  |---3--|   |---3---|  |---3--|    
      E   E   E  E  E   E   E   E   E  E  E   E    
C#||----------------------------------------------|
G#||----------------------------------------------|
E ||----------------------------------------------|
B ||----------------------------------------------|
F#||-------------3---------------------3----------|
C#||--0h--3h--5-----5p--3p--0h--3h--5-----5p--3h--|


  |---3---|  |---3--|   |-3-|     3       
  E   E   E  E  E   E   E   Q     Q.      
-----------------------------------------|
-----------------------------------------|
---------------------------12------------|
---------------------------12----12------|
-------------3-------------10----12------|
--0h--3h--5-----5p--3p--0--------10------|


  |---3---|  |---3--|   |---3---|  |---3--|    
  E   E   E  E  E   E   E   E   E  E  E   E    
----------------------------------------------|
----------------------------------------------|
----------------------------------------------|
----------------------------------------------|
-------------3---------------------3----------|
--0h--3h--5-----5p--3p--0h--3h--5-----5p--3h--|


  |---3---|  |---3--|   |-3-|     3       
  E   E   E  E  E   E   E   Q     Q.      
-----------------------------------------|
-----------------------------------------|
---------------------------------10------|
---------------------------12----10------|
-------------3-------------12-----8------|
--0h--3h--5-----5p--3p--0--10------------|


  |---3---|  |---3--|   |---3---|  |---3--|    
  E   E   E  E  E   E   E   E   E  E  E   E    
----------------------------------------------|
----------------------------------------------|
----------------------------------------------|
----------------------------------------------|
-------------3---------------------3----------|
--0h--3h--5-----5p--3p--0h--3h--5-----5p--3h--|


  |---3---|  |---3--|   |-3-|     3       
  E   E   E  E  E   E   E   Q     Q.      
-----------------------------------------|
-----------------------------------------|
---------------------------12------------|
---------------------------12----12------|
-------------3-------------10----12------|
--0h--3h--5-----5p--3p--0--------10------|


  |---3---|  |---3--|   |---3---|  |---3--|    
  E   E   E  E  E   E   E   E   E  E  E   E    
----------------------------------------------|
----------------------------------------------|
----------------------------------------------|
----------------------------------------------|
-------------3---------------------3----------|
--0h--3h--5-----5p--3p--0h--3h--5-----5p--3h--|


  |---3---|  |---3--|   |---3--|         
  E   E   E  E  E   E   E  E   H         
----------------------------------------|
----------------------------------------|
----------------------------------------|
---------------------------5~--L--------|
-------------3-------------5~--L--------|
--0h--3h--5-----5p--3p--0--3~--L--------|


  |-3-|     |---3--|   |-3-|     |---3--|    
  E   Q     E  E   E   E   Q     E  E   E    
--------------------------------------------|
--------------------------------------------|
--------------------------------------------|
--------------------------------------------|
------------3--------------------3----------|
--0h--5h-------5p--3p--0h--5h-------5p--3h--|


  |-3-|     |---3--|   |-3-|     3       
  E   Q     E  E   E   E   Q     Q.      
----------------------------------------|
----------------------------------------|
--------------------------12------------|
--------------------------12----12------|
------------3-------------10----12------|
--0h--5h-------5p--3p--0--------10------|


  |-3-|     |---3--|   |-3-|     |---3--|    
  E   Q     E  E   E   E   Q     E  E   E    
--------------------------------------------|
--------------------------------------------|
--------------------------------------------|
--------------------------------------------|
------------3--------------------3----------|
--0h--5h-------5p--3p--0h--5h-------5p--3h--|


  |-3-|     |---3--|   |-3-|     3       
  E   Q     E  E   E   E   Q     Q.      
----------------------------------------|
----------------------------------------|
--------------------------------10------|
--------------------------12----10------|
------------3-------------12-----8------|
--0h--5h-------5p--3p--0--10------------|


  |---3---|  |---3--|   |---3---|  |---3--|    
  E   E   E  E  E   E   E   E   E  E  E   E    
----------------------------------------------|
----------------------------------------------|
----------------------------------------------|
----------------------------------------------|
-------------3---------------------3----------|
--0h--3h--5-----5p--3p--0h--3h--5-----5p--3h--|


  |---3---|  |---3--|   |-3-|     3       
  E   E   E  E  E   E   E   Q     Q.      
-----------------------------------------|
-----------------------------------------|
---------------------------12------------|
---------------------------12----12------|
-------------3-------------10----12------|
--0h--3h--5-----5p--3p--0--------10------|


  |---3---|  |---3--|   |---3---|  |---3--|    
  E   E   E  E  E   E   E   E   E  E  E   E    
----------------------------------------------|
----------------------------------------------|
----------------------------------------------|
----------------------------------------------|
-------------3---------------------3----------|
--0h--3h--5-----5p--3p--0h--3h--5-----5p--3h--|


  |---3---|  |---3--|   |-3-|     3       
  E   E   E  E  E   E   E   Q     Q.      
-----------------------------------------|
-----------------------------------------|
---------------------------------10------|
---------------------------12----10------|
-------------3-------------12-----8------|
--0h--3h--5-----5p--3p--0--10------------|


  |---3--|  |-3|    |---3--|  |-3|       |---3--|  |--3--|  |-3|     3        
  E  E   E  E  Q    E  E   E  E  Q       E  E   E  E  E  E  E  Q     Q.       
--------------------------------------|--------------------------------------|
--------------------------------------|--------------------------------------|
--------------------------------------|--------------------------------------|
-----5S--7--7--7-------5S--7--7--7----|-----5S--7--7--7--------9----10~------|
-----5S--7--7--7-------5S--7--7--7----|-----5S--7--7--7--------9----10~------|
--0--3S--5--5--5----0--3S--5--5--5----|--0--3S--5--5--5--0--0--7-----8~------|


                                                      PM PM PM                 
  |---3--|  |-3|    |---3--|  |-3|       |---3--|  |--3--|  |-3-|     3        
  E  E   E  E  Q    E  E   E  E  Q       E  E   E  E  E  E  E   Q     Q.       
--------------------------------------|---------------------------------------|
--------------------------------------|---------------------------------------|
--------------------------------------|------------------------12-------------|
-----5S--7--7--7-------5S--7--7--7----|-----5S--7--7-----------12----12~------|
-----5S--7--7--7-------5S--7--7--7----|-----5S--7--7-----------10----12~------|
--0--3S--5--5--5----0--3S--5--5--5----|--0--3S--5--5--0--0--0--------10~------|


  |---3--|  |-3|    |---3--|  |-3|       |---3--|  |--3--|  |-3|     3        
  E  E   E  E  Q    E  E   E  E  Q       E  E   E  E  E  E  E  Q     Q.       
--------------------------------------|--------------------------------------|
--------------------------------------|--------------------------------------|
--------------------------------------|--------------------------------------|
-----5S--7--7--7-------5S--7--7--7----|-----5S--7--7--7--------9----10~------|
-----5S--7--7--7-------5S--7--7--7----|-----5S--7--7--7--------9----10~------|
--0--3S--5--5--5----0--3S--5--5--5----|--0--3S--5--5--5--0--0--7-----8~------|


  |---3--|  |-3|    |---3--|  |-3|       |-3|    |----3----|    3        
  E  E   E  E  Q    E  E   E  E  Q       E  Q    Q    Q    Q    Q.       
--------------------------------------|---------------------------------|
--------------------------------------|---------------------------------|
--------------------------------------|---------------------------------|
-----5S--7--7--7-------5S--7--7--7----|---------------------------------|
-----5S--7--7--7-------5S--7--7--7----|-----3----2----3----5------------|
--0--3S--5--5--5----0--3S--5--5--5----|--0----------------------3~------|


  |--3-|  |---3--|  |--3-|  |---3--|     |--3-|  |---3--|  3    3      3   
  Q    E  E   E  E  Q    E  E   E  E     Q    E  E   E  E  Q    Q.     E   
--------------------------------------|-----------------------------------|
--------------------------------------|-----------------------------------|
--------------------------------------|--------------------9----7---------|
-------7-----------------7------------|-------7------------9----7---------|
--9-------9p--7-----9-------9p--7-----|--9-------9p--7-----7----5------7--|
-----------------9-----------------9--|-----------------9-----------------|


  |--3-|  |---3--|  |--3-|  |---3--|     |--3-|  |---3--|  3     3      3   
  Q    E  E   E  E  Q    E  E   E  E     Q    E  E   E  E  Q     Q.     E   
--------------------------------------|------------------------------------|
--------------------------------------|------------------------------------|
--------------------------------------|--------------------9----12---------|
-------7-----------------7------------|-------7------------9----12---------|
--9-------9p--7-----9-------9p--7-----|--9-------9p--7-----7----10------7--|
-----------------9-----------------9--|-----------------9------------------|


  |--3-|  |---3--|  |--3-|  |---3--|     |--3-|  |---3--|  3    3      3   
  Q    E  E   E  E  Q    E  E   E  E     Q    E  E   E  E  Q    Q.     E   
--------------------------------------|-----------------------------------|
--------------------------------------|-----------------------------------|
--------------------------------------|--------------------9----7---------|
-------7-----------------7------------|-------7------------9----7---------|
--9-------9p--7-----9-------9p--7-----|--9-------9p--7-----7----5------7--|
-----------------9-----------------9--|-----------------9-----------------|


  |--3-|  |---3--|  |--3-|  |---3--|     |--3-|  |---3--|   
  Q    E  E   E  E  Q    E  E   E  E     Q    E  E   E  E   
--------------------------------------|--------------------|
--------------------------------------|--------------------|
--------------------------------------|--------------------|
-------7-----------------7------------|-------7------------|
--9-------9p--7-----9-------9p--7-----|--9-------9p--7-----|
-----------------9-----------------9--|-----------------9--|


  H        H           H        H         
--------------------|--------------------|
--------------------|--------------------|
--------------------|--------------------|
--------------------|--------------------|
--9--------8--------|--7--------6--------|
--------------------|--------------------|


  |-3-|     |---3--|   |-3-|     |---3--|    
  E   Q     E  E   E   E   Q     E  E   E    
--------------------------------------------|
--------------------------------------------|
--------------------------------------------|
--------------------------------------------|
------------3--------------------3----------|
--0h--5h-------5p--3p--0h--5h-------5p--3h--|


  |-3-|     |---3--|   |-3-|     3       
  E   Q     E  E   E   E   Q     Q.      
----------------------------------------|
----------------------------------------|
--------------------------12------------|
--------------------------12----12------|
------------3-------------10----12------|
--0h--5h-------5p--3p--0--------10------|


  |-3-|     |---3--|   |-3-|     |---3--|    
  E   Q     E  E   E   E   Q     E  E   E    
--------------------------------------------|
--------------------------------------------|
--------------------------------------------|
--------------------------------------------|
------------3--------------------3----------|
--0h--5h-------5p--3p--0h--5h-------5p--3h--|


  |-3-|     |---3--|   |-3-|     3       
  E   Q     E  E   E   E   Q     Q.      
----------------------------------------|
----------------------------------------|
--------------------------------10------|
--------------------------12----10------|
------------3-------------12-----8------|
--0h--5h-------5p--3p--0--10------------|


  |-3-|     |---3--|   |-3-|     |---3--|    
  E   Q     E  E   E   E   Q     E  E   E    
--------------------------------------------|
--------------------------------------------|
--------------------------------------------|
--------------------------------------------|
------------3--------------------3----------|
--0h--5h-------5p--3p--0h--5h-------5p--3h--|


  |-3-|     |---3--|   |-3-|     3       
  E   Q     E  E   E   E   Q     Q.      
----------------------------------------|
----------------------------------------|
--------------------------12------------|
--------------------------12----12------|
------------3-------------10----12------|
--0h--5h-------5p--3p--0--------10------|


  |-3-|     |---3--|   |-3-|     |---3--|    
  E   Q     E  E   E   E   Q     E  E   E    
--------------------------------------------|
--------------------------------------------|
--------------------------------------------|
--------------------------------------------|
------------3--------------------3----------|
--0h--5h-------5p--3p--0h--5h-------5p--3h--|


  |-3-|     |---3--|   |-3-|     3         |---3--|  |-3|    |---3--|  |-3|     
  E   Q     E  E   E   E   Q     Q.        E  E   E  E  Q    E  E   E  E  Q     
----------------------------------------|--------------------------------------|
----------------------------------------|--------------------------------------|
--------------------------------10------|--------------------------------------|
--------------------------12----10------|-----5S--7--7--7-------5S--7--7--7----|
------------3-------------12-----8------|-----5S--7--7--7-------5S--7--7--7----|
--0h--5h-------5p--3p--0--10------------|--0--3S--5--5--5----0--3S--5--5--5----|


  |---3--|  |--3--|  |-3|     3          |---3--|  |-3|    |---3--|  |-3|     
  E  E   E  E  E  E  E  Q     Q.         E  E   E  E  Q    E  E   E  E  Q     
--------------------------------------|--------------------------------------|
--------------------------------------|--------------------------------------|
--------------------------------------|--------------------------------------|
-----5S--7--7--7--------9----10~------|-----5S--7--7--7-------5S--7--7--7----|
-----5S--7--7--7--------9----10~------|-----5S--7--7--7-------5S--7--7--7----|
--0--3S--5--5--5--0--0--7-----8~------|--0--3S--5--5--5----0--3S--5--5--5----|


               PM PM PM                                                        
  |---3--|  |--3--|  |-3-|     3          |---3--|  |-3|    |---3--|  |-3|     
  E  E   E  E  E  E  E   Q     Q.         E  E   E  E  Q    E  E   E  E  Q     
---------------------------------------|--------------------------------------|
---------------------------------------|--------------------------------------|
------------------------12-------------|--------------------------------------|
-----5S--7--7-----------12----12~------|-----5S--7--7--7-------5S--7--7--7----|
-----5S--7--7-----------10----12~------|-----5S--7--7--7-------5S--7--7--7----|
--0--3S--5--5--0--0--0--------10~------|--0--3S--5--5--5----0--3S--5--5--5----|


  |---3--|  |--3--|  |-3|     3          |---3--|  |-3|    |---3--|  |-3|     
  E  E   E  E  E  E  E  Q     Q.         E  E   E  E  Q    E  E   E  E  Q     
--------------------------------------|--------------------------------------|
--------------------------------------|--------------------------------------|
--------------------------------------|--------------------------------------|
-----5S--7--7--7--------9----10~------|-----5S--7--7--7-------5S--7--7--7----|
-----5S--7--7--7--------9----10~------|-----5S--7--7--7-------5S--7--7--7----|
--0--3S--5--5--5--0--0--7-----8~------|--0--3S--5--5--5----0--3S--5--5--5----|


  |-3|    |----3----|    3          |--3-|  |---3--|  |--3-|  |---3--|   
  E  Q    Q    Q    Q    Q.         Q    E  E   E  E  Q    E  E   E  E   
---------------------------------|--------------------------------------|
---------------------------------|--------------------------------------|
---------------------------------|--------------------------------------|
---------------------------------|-------7-----------------7------------|
-----3----2----3----5------------|--9-------9p--7-----9-------9p--7-----|
--0----------------------3~------|-----------------9-----------------9--|


  |--3-|  |---3--|  3    3      3     |--3-|  |---3--|  |--3-|  |---3--|   
  Q    E  E   E  E  Q    Q.     E     Q    E  E   E  E  Q    E  E   E  E   
-----------------------------------|--------------------------------------|
-----------------------------------|--------------------------------------|
--------------------9----7---------|--------------------------------------|
-------7------------9----7---------|-------7-----------------7------------|
--9-------9p--7-----7----5------7--|--9-------9p--7-----9-------9p--7-----|
-----------------9-----------------|-----------------9-----------------9--|


  |--3-|  |---3--|  3     3      3     |--3-|  |---3--|  |--3-|  |---3--|   
  Q    E  E   E  E  Q     Q.     E     Q    E  E   E  E  Q    E  E   E  E   
------------------------------------|--------------------------------------|
------------------------------------|--------------------------------------|
--------------------9----12---------|--------------------------------------|
-------7------------9----12---------|-------7-----------------7------------|
--9-------9p--7-----7----10------7--|--9-------9p--7-----9-------9p--7-----|
-----------------9------------------|-----------------9-----------------9--|


  |--3-|  |---3--|  3    3      3     |--3-|  |---3--|  |--3-|  |---3--|   
  Q    E  E   E  E  Q    Q.     E     Q    E  E   E  E  Q    E  E   E  E   
-----------------------------------|--------------------------------------|
-----------------------------------|--------------------------------------|
--------------------9----7---------|--------------------------------------|
-------7------------9----7---------|-------7-----------------7------------|
--9-------9p--7-----7----5------7--|--9-------9p--7-----9-------9p--7-----|
-----------------9-----------------|-----------------9-----------------9--|


  |--3-|  |---3--|                                             
  Q    E  E   E  E     H        H           H        H         
--------------------|--------------------|--------------------|
--------------------|--------------------|--------------------|
--------------------|--------------------|--------------------|
-------7------------|--------------------|--------------------|
--9-------9p--7-----|--9--------8--------|--7--------6--------|
-----------------9--|--------------------|--------------------|


                                            |----3----|    |----3----|     
  H        H           H        H           Q    Q    Q    Q    Q    Q     
--------------------|--------------------|--------------------------------|
--------------------|--------------------|--------------------------------|
--------------------|--------------------|--------------------------------|
--------------------|--------------------|--------------------------------|
--9--------8--------|--7--------6--------|-------5--------------5---------|
--------------------|--------------------|--7---------7----6---------6----|


  |----3----|    |----3----|       |----3----|    |----3----|     
  Q    Q    Q    Q    Q    Q       Q    Q    Q    Q    Q    Q     
--------------------------------|--------------------------------|
--------------------------------|--------------------------------|
--------------------------------|--------------------------------|
--------------------------------|--------------------------------|
-------5--------------5---------|-------5--------------5---------|
--5---------5----4---------4----|--7---------7----6---------6----|


  |----3----|    |----3----|       |----3----|    |----3----|     
  Q    Q    Q    Q    Q    Q       Q    Q    Q    Q    Q    Q     
--------------------------------|--------------------------------|
--------------------------------|--------------------------------|
--------------------------------|--------------------------------|
--------------------------------|-------3--------------3---------|
-------5--------------5---------|--5---------5----4---------4----|
--5---------5----4---------4----|--------------------------------|


  |----3----|    |----3----|       |----3----|    |----3----|     
  Q    Q    Q    Q    Q    Q       Q    Q    Q    Q    Q    Q     
--------------------------------|--------------------------------|
--------------------------------|--------------------------------|
--------------------------------|--------------------------------|
-------3--------------3---------|-------3--------------3---------|
--3---------3----2---------2----|--5---------5----4---------4----|
--------------------------------|--------------------------------|


  |----3----|    |----3----|                                               
  Q    Q    Q    Q    Q    Q       H        H           H        H         
--------------------------------|--------------------|--------------------|
--------------------------------|--------------------|--------------------|
--------------------------------|--------------------|--------------------|
-------3--------------3---------|--------------------|--------------------|
--3---------3----2---------2----|--9--------8--------|--7--------6--------|
--------------------------------|--------------------|--------------------|


  H        H           H        H         
--------------------|--------------------|
--------------------|--------------------|
--------------------|--------------------|
--------------------|--------------------|
--9--------8--------|--7--------6--------|
--------------------|--------------------|


  |---3--|  |-3|    |---3--|  |-3|       |---3--|  |--3--|  |-3|     3        
  E  E   E  E  Q    E  E   E  E  Q       E  E   E  E  E  E  E  Q     Q.       
--------------------------------------|--------------------------------------|
--------------------------------------|--------------------------------------|
--------------------------------------|--------------------------------------|
-----5S--7--7--7-------5S--7--7--7----|-----5S--7--7--7--------9----10~------|
-----5S--7--7--7-------5S--7--7--7----|-----5S--7--7--7--------9----10~------|
--0--3S--5--5--5----0--3S--5--5--5----|--0--3S--5--5--5--0--0--7-----8~------|


                                                      PM PM PM                 
  |---3--|  |-3|    |---3--|  |-3|       |---3--|  |--3--|  |-3-|     3        
  E  E   E  E  Q    E  E   E  E  Q       E  E   E  E  E  E  E   Q     Q.       
--------------------------------------|---------------------------------------|
--------------------------------------|---------------------------------------|
--------------------------------------|------------------------12-------------|
-----5S--7--7--7-------5S--7--7--7----|-----5S--7--7-----------12----12~------|
-----5S--7--7--7-------5S--7--7--7----|-----5S--7--7-----------10----12~------|
--0--3S--5--5--5----0--3S--5--5--5----|--0--3S--5--5--0--0--0--------10~------|


  |---3--|  |-3|    |---3--|  |-3|       |---3--|  |--3--|  |-3|     3        
  E  E   E  E  Q    E  E   E  E  Q       E  E   E  E  E  E  E  Q     Q.       
--------------------------------------|--------------------------------------|
--------------------------------------|--------------------------------------|
--------------------------------------|--------------------------------------|
-----5S--7--7--7-------5S--7--7--7----|-----5S--7--7--7--------9----10~------|
-----5S--7--7--7-------5S--7--7--7----|-----5S--7--7--7--------9----10~------|
--0--3S--5--5--5----0--3S--5--5--5----|--0--3S--5--5--5--0--0--7-----8~------|


  |---3--|  |-3|    |---3--|  |-3|       |---3--|  |--3--|  |-3-|     3        
  E  E   E  E  Q    E  E   E  E  Q       E  E   E  E  E  E  E   Q     Q.       
--------------------------------------|---------------------------------------|
--------------------------------------|---------------------------------------|
--------------------------------------|------------------------12-------------|
-----5S--7--7--7-------5S--7--7--7----|-----5S--7--7--7--------12----12~------|
-----5S--7--7--7-------5S--7--7--7----|-----5S--7--7--7--------10----12~------|
--0--3S--5--5--5----0--3S--5--5--5----|--0--3S--5--5--5--0--0--------10~------|


   W                   W                   W                 
--------------------|-------------------|-------------------|
--------------------|-------------------|-------------------|
--------------------|-------------------|-------------------|
--10----------------|--9----------------|--7----------------|
--10----------------|--9----------------|--7----------------|
---8----------------|--7----------------|--5----------------|


  W                     W                   W                 
--------------------|--------------------|-------------------|
--------------------|--------------------|-------------------|
--------------------|--------------------|-------------------|
--------------------|--10----------------|--9----------------|
--------------------|--10----------------|--9----------------|
--3b----------------|---8----------------|--7----------------|


  W                   W                     W                 
-------------------|--------------------|--------------------|
-------------------|--------------------|--------------------|
-------------------|--------------------|--------------------|
--7----------------|--------------------|--10----------------|
--7----------------|--------------------|--10----------------|
--5----------------|--3b----------------|---8----------------|


  W                   W                   W                  
-------------------|-------------------|--------------------|
-------------------|-------------------|--------------------|
-------------------|-------------------|--------------------|
--9----------------|--7----------------|--------------------|
--9----------------|--7----------------|--------------------|
--7----------------|--5----------------|--3b----------------|


                                           |-3|                  
   W                   W                   E  Q    H.            
--------------------|-------------------|-----------------------|
--------------------|-------------------|-----------------------|
--------------------|-------------------|-----------------------|
--10----------------|--9----------------|--7--------------------|
--10----------------|--9----------------|--7--------------------|
---8----------------|--7----------------|--5--------------------|


           |-3-|     3         |---3---|  |---3--|   |---3---|  |---3--|    
  H        E   Q     Q.        E   E   E  E  E   E   E   E   E  E  E   E    
----------------------------|----------------------------------------------|
----------------------------|----------------------------------------------|
--------------12------------|----------------------------------------------|
--------------12----12------|----------------------------------------------|
--------------10----12------|-------------3---------------------3----------|
--------------------10------|--0h--3h--5-----5p--3p--0h--3h--5-----5p--3h--|


  |---3---|  |---3--|   |-3-|     3       
  E   E   E  E  E   E   E   Q     Q.      
-----------------------------------------|
-----------------------------------------|
---------------------------12------------|
---------------------------12----12------|
-------------3-------------10----12------|
--0h--3h--5-----5p--3p--0--------10------|


  |---3---|  |---3--|   |---3---|  |---3--|    
  E   E   E  E  E   E   E   E   E  E  E   E    
----------------------------------------------|
----------------------------------------------|
----------------------------------------------|
----------------------------------------------|
-------------3---------------------3----------|
--0h--3h--5-----5p--3p--0h--3h--5-----5p--3h--|


  |---3---|  |---3--|   |-3-|     3       
  E   E   E  E  E   E   E   Q     Q.      
-----------------------------------------|
-----------------------------------------|
---------------------------------10------|
---------------------------12----10------|
-------------3-------------12-----8------|
--0h--3h--5-----5p--3p--0--10------------|


  |---3---|  |---3--|   |---3---|  |---3--|    
  E   E   E  E  E   E   E   E   E  E  E   E    
----------------------------------------------|
----------------------------------------------|
----------------------------------------------|
----------------------------------------------|
-------------3---------------------3----------|
--0h--3h--5-----5p--3p--0h--3h--5-----5p--3h--|


  |---3---|  |---3--|   |-3-|     3       
  E   E   E  E  E   E   E   Q     Q.      
-----------------------------------------|
-----------------------------------------|
---------------------------12------------|
---------------------------12----12------|
-------------3-------------10----12------|
--0h--3h--5-----5p--3p--0--------10------|


  |---3---|  |---3--|   |---3---|  |---3--|    
  E   E   E  E  E   E   E   E   E  E  E   E    
----------------------------------------------|
----------------------------------------------|
----------------------------------------------|
----------------------------------------------|
-------------3---------------------3----------|
--0h--3h--5-----5p--3p--0h--3h--5-----5p--3h--|


  |---3---|  |---3--|   |-3-|     3       
  E   E   E  E  E   E   E   Q     Q.      
-----------------------------------------|
-----------------------------------------|
---------------------------------10------|
---------------------------12----10------|
-------------3-------------12-----8------|
--0h--3h--5-----5p--3p--0--10------------|


  |---3---|  |---3--|   |---3---|  |---3--|    
  E   E   E  E  E   E   E   E   E  E  E   E    
----------------------------------------------|
----------------------------------------------|
----------------------------------------------|
----------------------------------------------|
-------------3---------------------3----------|
--0h--3h--5-----5p--3p--0h--3h--5-----5p--3h--|


  |---3---|  |---3--|   |-3-|     3       
  E   E   E  E  E   E   E   Q     Q.      
-----------------------------------------|
-----------------------------------------|
---------------------------12------------|
---------------------------12----12------|
-------------3-------------10----12------|
--0h--3h--5-----5p--3p--0--------10------|


  |---3---|  |---3--|   |---3---|  |---3--|    
  E   E   E  E  E   E   E   E   E  E  E   E    
----------------------------------------------|
----------------------------------------------|
----------------------------------------------|
----------------------------------------------|
-------------3---------------------3----------|
--0h--3h--5-----5p--3p--0h--3h--5-----5p--3h--|


  |---3---|  |---3--|   |-3-|     3       
  E   E   E  E  E   E   E   Q     Q.      
-----------------------------------------|
-----------------------------------------|
---------------------------------10------|
---------------------------12----10------|
-------------3-------------12-----8------|
--0h--3h--5-----5p--3p--0--10------------|


  |---3---|  |---3--|   |---3---|  |---3--|    
  E   E   E  E  E   E   E   E   E  E  E   E    
----------------------------------------------|
----------------------------------------------|
----------------------------------------------|
----------------------------------------------|
-------------3---------------------3----------|
--0h--3h--5-----5p--3p--0h--3h--5-----5p--3h--|


  |---3---|  |---3--|   |-3-|     3       
  E   E   E  E  E   E   E   Q     Q.      
-----------------------------------------|
-----------------------------------------|
---------------------------12------------|
---------------------------12----12------|
-------------3-------------10----12------|
--0h--3h--5-----5p--3p--0--------10------|


  |---3---|  |---3--|   |---3---|  |---3--|    
  E   E   E  E  E   E   E   E   E  E  E   E    
----------------------------------------------|
----------------------------------------------|
----------------------------------------------|
----------------------------------------------|
-------------3---------------------3----------|
--0h--3h--5-----5p--3p--0h--3h--5-----5p--3h--|


  |---3---|  |---3--|   |-3-|     3                           
  E   E   E  E  E   E   E   Q     Q.        W                 
-----------------------------------------|-------------------|
-----------------------------------------|-------------------|
---------------------------------10------|--L----------------|
---------------------------12----10------|--L----------------|
-------------3-------------12-----8------|--L----------------|
--0h--3h--5-----5p--3p--0--10------------|-------------------|


                      |----3----|    |----3----|                          
  W                   Q    Q    Q    Q    Q    Q        W                 
-------------------|---------------------------------|-------------------|
-------------------|---------------------------------|-------------------|
--L----------------|--L------------------------------|-------------------|
--L----------------|--L------------------------------|-------------------|
--L----------------|--L----3----2----3----5----------|-------------------|
-------------------|---------------------------3~----|--L----------------|


  E  E  Q     H          
-----------------------||
-----------------------||
-----------------------||
--5--7--L\-------------||
--5--7--L\-------------||
--3--5--L\-------------||




Duration Legend
---------------
W - whole
H - half
Q - quarter
E - 8th
S - 16th
T - 32nd
X - 64th
. - note dotted
|-n-|  - n-tuplets


Tablature Legend
----------------
L - tied note
x - dead note
g - grace note
(n) - ghost note
> - accentuded note
NH - natural harmonic
AH - artificial harmonic
TH - tapped harmonic
SH - semi harmonic
PH - pitch harmonic
h - hammer on
p - pull off
b - bend
br - bendRelease
pb - preBend
pbr - preBendRelease
brb - bendReleaseBend
\n/ - tremolo bar dip
\n - tremolo bar dive
-/n - tremolo bar Release up
/n\ - tremolo bar inverted dip
/n - tremolo bar return
-\n - tremolo bar Release down
S - shift slide
s - legato slide
/ -  slide into from below or out of upwards
\ -  slide into from above or out of downwards
~ - vibrato
W - wide vibrato
tr - trill
TP - tremolo picking
T - tapping
S - slap
P - pop
< - fade in
^ - brush up
v - brush down





Comments


Popular Down tabs & chords
Lies 1 Bass Tabs
Salamat Chords
3 Suns And 1 Star Tabs
3 Suns And 1star Tabs
Eyes Of The South Tabs
In The Thrall Of It All Tabs
Landing On The Mountains Of Meggido 2 Tabs
N.O.D 2 Tabs
Stone The Crow 3 Tabs
The Man That Follows Hell Tabs


Song lyrics



↑ Back to top | Tablatures and chords are parodies/interpretations of the original songs. You may use it for private study, scholarship, research or language learning purposes only
© 2014 AZChords.com Contact us | Privacy policy | DMCA | Add/correct tabs | Request tabs | Top 50 tabs